  0
SECTION
  2
HEADER
  9
$ACADVER
  1
AC1009
  9
$INSBASE
 10
0.0
 20
0.0
 30
0.0
  9
$EXTMIN
 10
-0.950395
 20
-0.932803
 30
-0.000034
  9
$EXTMAX
 10
0.950529
 20
1.52774
 30
1.115034
  9
$LIMMIN
 10
0.0
 20
0.0
  9
$LIMMAX
 10
12.0
 20
9.0
  9
$ORTHOMODE
 70
     0
  9
$REGENMODE
 70
     1
  9
$FILLMODE
 70
     1
  9
$QTEXTMODE
 70
     0
  9
$MIRRTEXT
 70
     1
  9
$DRAGMODE
 70
     2
  9
$LTSCALE
 40
1.0
  9
$OSMODE
 70
     1
  9
$ATTMODE
 70
     0
  9
$TEXTSIZE
 40
0.15
  9
$TRACEWID
 40
0.05
  9
$TEXTSTYLE
  7
STANDARD
  9
$CLAYER
  8
0
  9
$CELTYPE
  6
BYLAYER
  9
$CECOLOR
 62
   256
  9
$DIMSCALE
 40
1.0
  9
$DIMASZ
 40
0.18
  9
$DIMEXO
 40
0.0625
  9
$DIMDLI
 40
0.38
  9
$DIMRND
 40
0.0
  9
$DIMDLE
 40
0.0
  9
$DIMEXE
 40
0.18
  9
$DIMTP
 40
0.0
  9
$DIMTM
 40
0.0
  9
$DIMTXT
 40
0.18
  9
$DIMCEN
 40
0.09
  9
$DIMTSZ
 40
0.0
  9
$DIMTOL
 70
     0
  9
$DIMLIM
 70
     0
  9
$DIMTIH
 70
     1
  9
$DIMTOH
 70
     1
  9
$DIMSE1
 70
     0
  9
$DIMSE2
 70
     0
  9
$DIMTAD
 70
     0
  9
$DIMZIN
 70
     0
  9
$DIMBLK
  1

  9
$DIMASO
 70
     1
  9
$DIMSHO
 70
     1
  9
$DIMPOST
  1

  9
$DIMAPOST
  1

  9
$DIMALT
 70
     0
  9
$DIMALTD
 70
     2
  9
$DIMALTF
 40
25.4
  9
$DIMLFAC
 40
1.0
  9
$DIMTOFL
 70
     0
  9
$DIMTVP
 40
0.0
  9
$DIMTIX
 70
     0
  9
$DIMSOXD
 70
     0
  9
$DIMSAH
 70
     0
  9
$DIMBLK1
  1

  9
$DIMBLK2
  1

  9
$DIMSTYLE
  2
STANDARD
  9
$DIMCLRD
 70
     0
  9
$DIMCLRE
 70
     0
  9
$DIMCLRT
 70
     0
  9
$DIMTFAC
 40
1.0
  9
$DIMGAP
 40
0.09
  9
$LUNITS
 70
     2
  9
$LUPREC
 70
     4
  9
$SKETCHINC
 40
0.1
  9
$FILLETRAD
 40
0.0
  9
$AUNITS
 70
     0
  9
$AUPREC
 70
     0
  9
$MENU
  1
acad
  9
$ELEVATION
 40
0.0
  9
$PELEVATION
 40
0.0
  9
$THICKNESS
 40
0.0
  9
$LIMCHECK
 70
     0
  9
$BLIPMODE
 70
     0
  9
$CHAMFERA
 40
0.0
  9
$CHAMFERB
 40
0.0
  9
$SKPOLY
 70
     0
  9
$TDCREATE
 40
2450692.759318
  9
$TDUPDATE
 40
2451164.45947
  9
$TDINDWG
 40
0.000153
  9
$TDUSRTIMER
 40
0.000153
  9
$USRTIMER
 70
     1
  9
$ANGBASE
 50
0.0
  9
$ANGDIR
 70
     0
  9
$PDMODE
 70
    96
  9
$PDSIZE
 40
0.09
  9
$PLINEWID
 40
0.0
  9
$COORDS
 70
     1
  9
$SPLFRAME
 70
     1
  9
$SPLINETYPE
 70
     6
  9
$SPLINESEGS
 70
     8
  9
$ATTDIA
 70
     0
  9
$ATTREQ
 70
     1
  9
$HANDLING
 70
     1
  9
$HANDSEED
  5
3E219
  9
$SURFTAB1
 70
     6
  9
$SURFTAB2
 70
     6
  9
$SURFTYPE
 70
     6
  9
$SURFU
 70
     6
  9
$SURFV
 70
     6
  9
$UCSNAME
  2

  9
$UCSORG
 10
0.0
 20
0.0
 30
0.0
  9
$UCSXDIR
 10
1.0
 20
0.0
 30
0.0
  9
$UCSYDIR
 10
0.0
 20
1.0
 30
0.0
  9
$PUCSNAME
  2

  9
$PUCSORG
 10
0.0
 20
0.0
 30
0.0
  9
$PUCSXDIR
 10
1.0
 20
0.0
 30
0.0
  9
$PUCSYDIR
 10
0.0
 20
1.0
 30
0.0
  9
$USERI1
 70
     0
  9
$USERI2
 70
     0
  9
$USERI3
 70
     0
  9
$USERI4
 70
     0
  9
$USERI5
 70
     0
  9
$USERR1
 40
0.0
  9
$USERR2
 40
0.0
  9
$USERR3
 40
0.0
  9
$USERR4
 40
0.0
  9
$USERR5
 40
0.0
  9
$WORLDVIEW
 70
     1
  9
$SHADEDGE
 70
     3
  9
$SHADEDIF
 70
    70
  9
$TILEMODE
 70
     1
  9
$MAXACTVP
 70
    16
  9
$PLIMCHECK
 70
     0
  9
$PEXTMIN
 10
1.000000E+020
 20
1.000000E+020
 30
1.000000E+020
  9
$PEXTMAX
 10
-1.000000E+020
 20
-1.000000E+020
 30
-1.000000E+020
  9
$PLIMMIN
 10
0.0
 20
0.0
  9
$PLIMMAX
 10
12.0
 20
9.0
  9
$UNITMODE
 70
     0
  9
$VISRETAIN
 70
     0
  9
$PLINEGEN
 70
     0
  9
$PSLTSCALE
 70
     1
  0
ENDSEC
  0
SECTION
  2
TABLES
  0
TABLE
  2
VPORT
 70
     2
  0
VPORT
  2
*ACTIVE
 70
     0
 10
0.0
 20
0.0
 11
1.0
 21
1.0
 12
0.000067
 22
0.297468
 13
0.0
 23
0.0
 14
0.25
 24
0.25
 15
0.25
 25
0.25
 16
0.0
 26
0.0
 36
1.0
 17
0.0
 27
0.0
 37
0.0
 40
2.616474
 41
1.603066
 42
50.0
 43
0.0
 44
0.0
 50
0.0
 51
0.0
 71
     0
 72
 20000
 73
     1
 74
     1
 75
     0
 76
     0
 77
     0
 78
     0
  0
ENDTAB
  0
TABLE
  2
LTYPE
 70
     1
  0
LTYPE
  2
CONTINUOUS
 70
     0
  3
Solid line
 72
    65
 73
     0
 40
0.0
  0
ENDTAB
  0
TABLE
  2
LAYER
 70
     2
  0
LAYER
  2
0
 70
     0
 62
     7
  6
CONTINUOUS
  0
LAYER
  2
DIMS-MTG-HOLES
 70
     0
 62
     1
  6
CONTINUOUS
  0
ENDTAB
  0
TABLE
  2
STYLE
 70
     1
  0
STYLE
  2
STANDARD
 70
     0
 40
0.0
 41
1.0
 50
0.0
 71
     0
 42
0.15
  3
txt
  4

  0
ENDTAB
  0
TABLE
  2
VIEW
 70
     0
  0
ENDTAB
  0
TABLE
  2
UCS
 70
     0
  0
ENDTAB
  0
TABLE
  2
APPID
 70
     1
  0
APPID
  2
ACAD
 70
     0
  0
ENDTAB
  0
TABLE
  2
DIMSTYLE
 70
     1
  0
DIMSTYLE
  2
STANDARD
 70
     0
  3

  4

  5

  6

  7

 40
1.0
 41
0.18
 42
0.0625
 43
0.38
 44
0.18
 45
0.0
 46
0.0
 47
0.0
 48
0.0
140
0.18
141
0.09
142
0.0
143
25.4
144
1.0
145
0.0
146
1.0
147
0.09
 71
     0
 72
     0
 73
     1
 74
     1
 75
     0
 76
     0
 77
     0
 78
     0
170
     0
171
     2
172
     0
173
     0
174
     0
175
     0
176
     0
177
     0
178
     0
  0
ENDTAB
  0
ENDSEC
  0
SECTION
  2
BLOCKS
  0
BLOCK
  8
0
  2
$MODEL_SPACE
 70
     0
 10
0.0
 20
0.0
 30
0.0
  3
$MODEL_SPACE
  1

  0
ENDBLK
  5
3E20F
  8
0
  0
BLOCK
 67
     1
  8
0
  2
$PAPER_SPACE
 70
     0
 10
0.0
 20
0.0
 30
0.0
  3
$PAPER_SPACE
  1

  0
ENDBLK
  5
3E20D
 67
     1
  8
0
  0
ENDSEC
  0
SECTION
  2
ENTITIES
  0
LINE
  5
3E1AD
  8
0
 10
0.905
 20
1.4825
 30
0.305
 11
-0.905
 21
1.4825
 31
0.305
  0
LINE
  5
3E1AE
  8
0
 10
-0.905
 20
-0.8875
 30
0.305
 11
0.905
 21
-0.8875
 31
0.305
  0
LINE
  5
3E1AF
  8
0
 10
0.905
 20
1.0075
 30
0.305
 11
-0.905
 21
1.0075
 31
0.305
  0
LINE
  5
3E1B0
  8
0
 10
0.905
 20
0.9625
 30
0.305
 11
-0.905
 21
0.9625
 31
0.305
  0
LINE
  5
3E1B1
  8
0
 10
-0.905
 20
0.9625
 30
0.305
 11
-0.905
 21
-0.8875
 31
0.305
  0
LINE
  5
3E1B2
  8
0
 10
-0.905
 20
1.4825
 30
0.305
 11
-0.905
 21
1.0075
 31
0.305
  0
LINE
  5
3E1B3
  8
0
 10
0.905
 20
-0.8875
 30
0.305
 11
0.905
 21
0.9625
 31
0.305
  0
LINE
  5
3E1B5
  8
0
 10
0.905
 20
1.0075
 30
0.305
 11
0.905
 21
1.4825
 31
0.305
  0
ARC
  5
3E1B6
  8
0
 39
0.145
 10
0.0
 20
0.0
 30
0.305
 40
0.4425
 50
120.187068
 51
239.812932
  0
ARC
  5
3E1B7
  8
0
 39
0.145
 10
0.0
 20
0.0
 30
0.305
 40
0.4425
 50
300.187068
 51
59.812932
  0
CIRCLE
  5
3E1B8
  8
0
 10
0.0
 20
0.0
 30
0.45
 40
0.4425
  0
LINE
  5
3E1B9
  8
0
 10
-0.2225
 20
-0.382492
 30
0.45
 11
-0.2225
 21
0.382492
 31
0.45
  0
LINE
  5
3E1BA
  8
0
 10
0.2225
 20
0.382492
 30
0.45
 11
0.2225
 21
-0.382492
 31
0.45
  0
LINE
  5
3E1BB
  8
0
 10
-0.025
 20
0.4825
 30
1.115
 11
-0.025
 21
0.6825
 31
1.115
  0
LINE
  5
3E1BC
  8
0
 10
0.025
 20
0.4825
 30
1.115
 11
0.025
 21
0.6825
 31
1.115
  0
LINE
  5
3E1BD
  8
0
 10
-0.025
 20
0.4825
 30
1.115
 11
0.025
 21
0.4825
 31
1.115
  0
POLYLINE
  5
3E1BE
  8
0
 66
     1
 10
0.0
 20
0.0
 30
0.0
 70
    16
 71
     6
 72
     3
  0
VERTEX
  5
3E1BF
  8
0
 10
0.2225
 20
-0.8095
 30
1.115
 70
    64
  0
VERTEX
  5
3E1C0
  8
0
 10
0.2225
 20
-0.8095
 30
0.305
 70
    64
  0
VERTEX
  5
3E1C1
  8
0
 10
0.2225
 20
-0.8095
 30
0.305
 70
    64
  0
VERTEX
  5
3E1C2
  8
0
 10
-0.2225
 20
-0.8095
 30
1.115
 70
    64
  0
VERTEX
  5
3E1C3
  8
0
 10
-0.2225
 20
-0.8095
 30
0.305
 70
    64
  0
VERTEX
  5
3E1C4
  8
0
 10
-0.2225
 20
-0.8095
 30
0.305
 70
    64
  0
VERTEX
  5
3E1C5
  8
0
 10
-0.2225
 20
0.6825
 30
1.115
 70
    64
  0
VERTEX
  5
3E1C6
  8
0
 10
-0.2225
 20
0.6825
 30
0.305
 70
    64
  0
VERTEX
  5
3E1C7
  8
0
 10
-0.2225
 20
-0.8095
 30
0.305
 70
    64
  0
VERTEX
  5
3E1C8
  8
0
 10
0.2225
 20
0.6825
 30
1.115
 70
    64
  0
VERTEX
  5
3E1C9
  8
0
 10
0.2225
 20
0.6825
 30
0.305
 70
    64
  0
VERTEX
  5
3E1CA
  8
0
 10
0.2225
 20
-0.8095
 30
0.305
 70
    64
  0
VERTEX
  5
3E1CB
  8
0
 10
0.2225
 20
0.6825
 30
1.115
 70
    64
  0
VERTEX
  5
3E1CC
  8
0
 10
0.2225
 20
0.6825
 30
1.115
 70
    64
  0
VERTEX
  5
3E1CD
  8
0
 10
0.2225
 20
-0.8095
 30
1.115
 70
    64
  0
VERTEX
  5
3E1CE
  8
0
 10
-0.2225
 20
0.6825
 30
1.115
 70
    64
  0
VERTEX
  5
3E1CF
  8
0
 10
-0.2225
 20
0.6825
 30
1.115
 70
    64
  0
VERTEX
  5
3E1D0
  8
0
 10
-0.2225
 20
-0.8095
 30
1.115
 70
    64
  0
SEQEND
  5
3E1D1
  8
0
  0
POLYLINE
  5
3E1D2
  8
0
 66
     1
 10
0.0
 20
0.0
 30
0.0
 70
    16
 71
     6
 72
     3
  0
VERTEX
  5
3E1D3
  8
0
 10
0.95
 20
-0.9325
 30
0.305
 70
    64
  0
VERTEX
  5
3E1D4
  8
0
 10
0.95
 20
-0.9325
 30
0.0
 70
    64
  0
VERTEX
  5
3E1D5
  8
0
 10
0.95
 20
-0.9325
 30
0.0
 70
    64
  0
VERTEX
  5
3E1D6
  8
0
 10
-0.95
 20
-0.9325
 30
0.305
 70
    64
  0
VERTEX
  5
3E1D7
  8
0
 10
-0.95
 20
-0.9325
 30
0.0
 70
    64
  0
VERTEX
  5
3E1D8
  8
0
 10
-0.95
 20
-0.9325
 30
0.0
 70
    64
  0
VERTEX
  5
3E1D9
  8
0
 10
-0.95
 20
1.5275
 30
0.305
 70
    64
  0
VERTEX
  5
3E1DA
  8
0
 10
-0.95
 20
1.5275
 30
0.0
 70
    64
  0
VERTEX
  5
3E1DB
  8
0
 10
-0.95
 20
-0.9325
 30
0.0
 70
    64
  0
VERTEX
  5
3E1DC
  8
0
 10
0.95
 20
1.5275
 30
0.305
 70
    64
  0
VERTEX
  5
3E1DD
  8
0
 10
0.95
 20
1.5275
 30
0.0
 70
    64
  0
VERTEX
  5
3E1DE
  8
0
 10
0.95
 20
-0.9325
 30
0.0
 70
    64
  0
VERTEX
  5
3E1DF
  8
0
 10
0.95
 20
1.5275
 30
0.305
 70
    64
  0
VERTEX
  5
3E1E0
  8
0
 10
0.95
 20
1.5275
 30
0.305
 70
    64
  0
VERTEX
  5
3E1E1
  8
0
 10
0.95
 20
-0.9325
 30
0.305
 70
    64
  0
VERTEX
  5
3E1E2
  8
0
 10
-0.95
 20
1.5275
 30
0.305
 70
    64
  0
VERTEX
  5
3E1E3
  8
0
 10
-0.95
 20
1.5275
 30
0.305
 70
    64
  0
VERTEX
  5
3E1E4
  8
0
 10
-0.95
 20
-0.9325
 30
0.305
 70
    64
  0
SEQEND
  5
3E1E5
  8
0
  0
POINT
  5
3E1E6
  8
DIMS-MTG-HOLES
 10
0.0
 20
0.0
 30
0.0
  0
TEXT
  5
3E1E7
  8
0
 10
-0.1363
 20
0.743391
 30
0.305
 40
0.15
  1
ON
  0
TEXT
  5
3E1E8
  8
0
 10
-0.885104
 20
-0.093209
 30
0.305
 40
0.15
  1
OFF
  0
ENDSEC
  0
EOF
