  0
SECTION
  2
HEADER
  9
$ACADVER
  1
AC1009
  9
$INSBASE
 10
0.0
 20
0.0
 30
0.0
  9
$EXTMIN
 10
-11.652562
 20
-7.080981
 30
0.0
  9
$EXTMAX
 10
27.792855
 20
7.08048
 30
0.0
  9
$LIMMIN
 10
0.0
 20
0.0
  9
$LIMMAX
 10
12.0
 20
9.0
  9
$ORTHOMODE
 70
     0
  9
$REGENMODE
 70
     1
  9
$FILLMODE
 70
     1
  9
$QTEXTMODE
 70
     0
  9
$MIRRTEXT
 70
     1
  9
$DRAGMODE
 70
     2
  9
$LTSCALE
 40
1.0
  9
$OSMODE
 70
     0
  9
$ATTMODE
 70
     1
  9
$TEXTSIZE
 40
0.2
  9
$TRACEWID
 40
0.05
  9
$TEXTSTYLE
  7
STANDARD
  9
$CLAYER
  8
0
  9
$CELTYPE
  6
BYLAYER
  9
$CECOLOR
 62
   256
  9
$DIMSCALE
 40
1.0
  9
$DIMASZ
 40
0.18
  9
$DIMEXO
 40
0.0625
  9
$DIMDLI
 40
0.38
  9
$DIMRND
 40
0.0
  9
$DIMDLE
 40
0.0
  9
$DIMEXE
 40
0.18
  9
$DIMTP
 40
0.0
  9
$DIMTM
 40
0.0
  9
$DIMTXT
 40
0.18
  9
$DIMCEN
 40
0.09
  9
$DIMTSZ
 40
0.0
  9
$DIMTOL
 70
     0
  9
$DIMLIM
 70
     0
  9
$DIMTIH
 70
     1
  9
$DIMTOH
 70
     1
  9
$DIMSE1
 70
     0
  9
$DIMSE2
 70
     0
  9
$DIMTAD
 70
     0
  9
$DIMZIN
 70
     0
  9
$DIMBLK
  1

  9
$DIMASO
 70
     1
  9
$DIMSHO
 70
     1
  9
$DIMPOST
  1

  9
$DIMAPOST
  1

  9
$DIMALT
 70
     0
  9
$DIMALTD
 70
     2
  9
$DIMALTF
 40
25.4
  9
$DIMLFAC
 40
1.0
  9
$DIMTOFL
 70
     0
  9
$DIMTVP
 40
0.0
  9
$DIMTIX
 70
     0
  9
$DIMSOXD
 70
     0
  9
$DIMSAH
 70
     0
  9
$DIMBLK1
  1

  9
$DIMBLK2
  1

  9
$DIMSTYLE
  2
STANDARD
  9
$DIMCLRD
 70
     0
  9
$DIMCLRE
 70
     0
  9
$DIMCLRT
 70
     0
  9
$DIMTFAC
 40
1.0
  9
$DIMGAP
 40
0.09
  9
$LUNITS
 70
     2
  9
$LUPREC
 70
     4
  9
$SKETCHINC
 40
0.1
  9
$FILLETRAD
 40
0.0
  9
$AUNITS
 70
     0
  9
$AUPREC
 70
     0
  9
$MENU
  1
acad
  9
$ELEVATION
 40
0.0
  9
$PELEVATION
 40
0.0
  9
$THICKNESS
 40
0.0
  9
$LIMCHECK
 70
     0
  9
$BLIPMODE
 70
     1
  9
$CHAMFERA
 40
0.0
  9
$CHAMFERB
 40
0.0
  9
$SKPOLY
 70
     0
  9
$TDCREATE
 40
2451127.582902
  9
$TDUPDATE
 40
2451129.61605
  9
$TDINDWG
 40
0.010382
  9
$TDUSRTIMER
 40
0.010382
  9
$USRTIMER
 70
     1
  9
$ANGBASE
 50
0.0
  9
$ANGDIR
 70
     0
  9
$PDMODE
 70
     0
  9
$PDSIZE
 40
0.0
  9
$PLINEWID
 40
0.0
  9
$COORDS
 70
     1
  9
$SPLFRAME
 70
     0
  9
$SPLINETYPE
 70
     6
  9
$SPLINESEGS
 70
     8
  9
$ATTDIA
 70
     0
  9
$ATTREQ
 70
     1
  9
$HANDLING
 70
     1
  9
$HANDSEED
  5
7C3
  9
$SURFTAB1
 70
     6
  9
$SURFTAB2
 70
     6
  9
$SURFTYPE
 70
     6
  9
$SURFU
 70
     6
  9
$SURFV
 70
     6
  9
$UCSNAME
  2

  9
$UCSORG
 10
0.0
 20
0.0
 30
0.0
  9
$UCSXDIR
 10
1.0
 20
0.0
 30
0.0
  9
$UCSYDIR
 10
0.0
 20
1.0
 30
0.0
  9
$PUCSNAME
  2

  9
$PUCSORG
 10
0.0
 20
0.0
 30
0.0
  9
$PUCSXDIR
 10
1.0
 20
0.0
 30
0.0
  9
$PUCSYDIR
 10
0.0
 20
1.0
 30
0.0
  9
$USERI1
 70
     0
  9
$USERI2
 70
     0
  9
$USERI3
 70
     0
  9
$USERI4
 70
     0
  9
$USERI5
 70
     0
  9
$USERR1
 40
0.0
  9
$USERR2
 40
0.0
  9
$USERR3
 40
0.0
  9
$USERR4
 40
0.0
  9
$USERR5
 40
0.0
  9
$WORLDVIEW
 70
     1
  9
$SHADEDGE
 70
     3
  9
$SHADEDIF
 70
    70
  9
$TILEMODE
 70
     1
  9
$MAXACTVP
 70
    16
  9
$PLIMCHECK
 70
     0
  9
$PEXTMIN
 10
1.000000E+020
 20
1.000000E+020
 30
1.000000E+020
  9
$PEXTMAX
 10
-1.000000E+020
 20
-1.000000E+020
 30
-1.000000E+020
  9
$PLIMMIN
 10
0.0
 20
0.0
  9
$PLIMMAX
 10
12.0
 20
9.0
  9
$UNITMODE
 70
     0
  9
$VISRETAIN
 70
     0
  9
$PLINEGEN
 70
     0
  9
$PSLTSCALE
 70
     1
  0
ENDSEC
  0
SECTION
  2
TABLES
  0
TABLE
  2
VPORT
 70
     2
  0
VPORT
  2
*ACTIVE
 70
     0
 10
0.0
 20
0.0
 11
1.0
 21
1.0
 12
8.070147
 22
-0.000251
 13
0.0
 23
0.0
 14
1.0
 24
1.0
 15
0.0
 25
0.0
 16
0.0
 26
0.0
 36
1.0
 17
0.0
 27
0.0
 37
0.0
 40
26.066162
 41
1.603066
 42
50.0
 43
0.0
 44
0.0
 50
0.0
 51
0.0
 71
     0
 72
 20000
 73
     1
 74
     0
 75
     0
 76
     0
 77
     0
 78
     0
  0
ENDTAB
  0
TABLE
  2
LTYPE
 70
     2
  0
LTYPE
  2
CONTINUOUS
 70
     0
  3
Solid line
 72
    65
 73
     0
 40
0.0
  0
LTYPE
  2
HIDDEN
 70
     0
  3
__ __ __ __ __ __ __ __ __ __ __ __ __ __ __ __
 72
    65
 73
     2
 40
0.375
 49
0.25
 49
-0.125
  0
ENDTAB
  0
TABLE
  2
LAYER
 70
     1
  0
LAYER
  2
0
 70
     0
 62
     7
  6
CONTINUOUS
  0
ENDTAB
  0
TABLE
  2
STYLE
 70
     1
  0
STYLE
  2
STANDARD
 70
     0
 40
0.0
 41
1.0
 50
0.0
 71
     0
 42
0.2
  3
txt
  4

  0
ENDTAB
  0
TABLE
  2
VIEW
 70
     0
  0
ENDTAB
  0
TABLE
  2
UCS
 70
     0
  0
ENDTAB
  0
TABLE
  2
APPID
 70
     1
  0
APPID
  2
ACAD
 70
     0
  0
ENDTAB
  0
TABLE
  2
DIMSTYLE
 70
     1
  0
DIMSTYLE
  2
STANDARD
 70
     0
  3

  4

  5

  6

  7

 40
1.0
 41
0.18
 42
0.0625
 43
0.38
 44
0.18
 45
0.0
 46
0.0
 47
0.0
 48
0.0
140
0.18
141
0.09
142
0.0
143
25.4
144
1.0
145
0.0
146
1.0
147
0.09
 71
     0
 72
     0
 73
     1
 74
     1
 75
     0
 76
     0
 77
     0
 78
     0
170
     0
171
     2
172
     0
173
     0
174
     0
175
     0
176
     0
177
     0
178
     0
  0
ENDTAB
  0
ENDSEC
  0
SECTION
  2
BLOCKS
  0
BLOCK
  8
0
  2
$MODEL_SPACE
 70
     0
 10
0.0
 20
0.0
 30
0.0
  3
$MODEL_SPACE
  1

  0
ENDBLK
  5
1C
  8
0
  0
BLOCK
 67
     1
  8
0
  2
$PAPER_SPACE
 70
     0
 10
0.0
 20
0.0
 30
0.0
  3
$PAPER_SPACE
  1

  0
ENDBLK
  5
19
 67
     1
  8
0
  0
BLOCK
  8
0
  2
NEWSIDECA5-860
 70
     0
 10
0.0
 20
0.0
 30
0.0
  3
NEWSIDECA5-860
  1

  0
LINE
  5
754
  8
0
 10
17.679972
 20
-0.415
 30
0.0
 11
17.679972
 21
-12.315
 31
0.0
  0
LINE
  5
755
  8
0
  6
BYBLOCK
 62
     0
 10
11.519998
 20
-1.164988
 30
0.0
 11
11.519998
 21
-12.365
 31
0.0
  0
LINE
  5
756
  8
0
  6
BYBLOCK
 62
     0
 10
10.660013
 20
-1.955
 30
0.0
 11
10.660013
 21
-10.775
 31
0.0
  0
LINE
  5
757
  8
0
  6
BYBLOCK
 62
     0
 10
6.199998
 20
-4.189939
 30
0.0
 11
6.199998
 21
-8.539861
 31
0.0
  0
LINE
  5
758
  8
0
  6
BYBLOCK
 62
     0
 10
17.609974
 20
-0.415
 30
0.0
 11
17.609974
 21
-5.51491
 31
0.0
  0
LINE
  5
759
  8
0
  6
BYBLOCK
 62
     0
 10
13.392431
 20
-12.125
 30
0.0
 11
11.519998
 21
-12.125
 31
0.0
  0
ARC
  5
75A
  8
0
  6
BYBLOCK
 62
     0
 10
7.704975
 20
-10.359829
 30
0.0
 40
0.124997
 50
180.0
 51
270.0
  0
LINE
  5
75B
  8
0
  6
BYBLOCK
 62
     0
 10
7.780024
 20
-12.014915
 30
0.0
 11
8.460024
 21
-12.014915
 31
0.0
  0
LINE
  5
75C
  8
0
  6
BYBLOCK
 62
     0
 10
8.400235
 20
-10.775
 30
0.0
 11
8.110061
 21
-10.484826
 31
0.0
  0
LINE
  5
75D
  8
0
  6
BYBLOCK
 62
     0
 10
7.720026
 20
-10.484826
 30
0.0
 11
7.720026
 21
-11.954917
 31
0.0
  0
ARC
  5
75E
  8
0
  6
BYBLOCK
 62
     0
 10
7.780024
 20
-11.954917
 30
0.0
 40
0.059999
 50
180.0
 51
270.0
  0
LINE
  5
75F
  8
0
  6
BYBLOCK
 62
     0
 10
8.110061
 20
-10.484826
 30
0.0
 11
7.704975
 21
-10.484826
 31
0.0
  0
LINE
  5
760
  8
0
  6
BYBLOCK
 62
     0
 10
9.679972
 20
-13.445
 30
0.0
 11
9.679972
 21
-11.044953
 31
0.0
  0
LINE
  5
761
  8
0
  6
BYBLOCK
 62
     0
 10
9.989972
 20
-11.044953
 30
0.0
 11
9.989972
 21
-13.445
 31
0.0
  0
LINE
  5
762
  8
0
  6
BYBLOCK
 62
     0
 10
9.679972
 20
-13.445
 30
0.0
 11
9.679972
 21
-11.1075
 31
0.0
  0
LINE
  5
763
  8
0
  6
BYBLOCK
 62
     0
 10
9.989972
 20
-13.445
 30
0.0
 11
9.679972
 21
-13.445
 31
0.0
  0
LINE
  5
764
  8
0
  6
BYBLOCK
 62
     0
 10
9.989972
 20
-12.294962
 30
0.0
 11
10.545049
 21
-12.294962
 31
0.0
  0
LINE
  5
765
  8
0
  6
BYBLOCK
 62
     0
 10
11.200003
 20
-10.775
 30
0.0
 11
8.400235
 21
-10.775
 31
0.0
  0
LINE
  5
766
  8
0
  6
BYBLOCK
 62
     0
 10
8.580021
 20
-12.294962
 30
0.0
 11
9.679972
 21
-12.294962
 31
0.0
  0
LINE
  5
767
  8
0
  6
BYBLOCK
 62
     0
 10
8.520023
 20
-12.074914
 30
0.0
 11
8.520023
 21
-12.234963
 31
0.0
  0
ARC
  5
768
  8
0
  6
BYBLOCK
 62
     0
 10
8.580021
 20
-12.234963
 30
0.0
 40
0.059999
 50
180.0
 51
270.0
  0
ARC
  5
769
  8
0
  6
BYBLOCK
 62
     0
 10
8.460024
 20
-12.074914
 30
0.0
 40
0.059999
 50
0.0
 51
90.0
  0
ARC
  5
76A
  8
0
  6
BYBLOCK
 62
     0
 10
10.179972
 20
-11.044953
 30
0.0
 40
0.5
 50
147.322707
 51
180.0
  0
LINE
  5
76B
  8
0
  6
BYBLOCK
 62
     0
 10
10.045621
 20
-10.910603
 30
0.0
 11
10.181224
 21
-10.775
 31
0.0
  0
ARC
  5
76C
  8
0
  6
BYBLOCK
 62
     0
 10
10.179972
 20
-11.044953
 30
0.0
 40
0.19
 50
135.0
 51
180.0
  0
LINE
  5
76D
  8
0
  6
BYBLOCK
 62
     0
 10
10.545049
 20
-10.775
 30
0.0
 11
10.545049
 21
-12.294962
 31
0.0
  0
LINE
  5
76E
  8
0
  6
BYBLOCK
 62
     0
 10
11.200003
 20
-12.365
 30
0.0
 11
11.200003
 21
-10.775
 31
0.0
  0
LINE
  5
76F
  8
0
  6
BYBLOCK
 62
     0
 10
11.519998
 20
-12.365
 30
0.0
 11
11.200003
 21
-12.365
 31
0.0
  0
LINE
  5
770
  8
0
  6
BYBLOCK
 62
     0
 10
11.519998
 20
-12.125
 30
0.0
 11
11.200003
 21
-12.125
 31
0.0
  0
LINE
  5
771
  8
0
  6
BYBLOCK
 62
     0
 10
10.240013
 20
-8.135
 30
0.0
 11
6.199998
 21
-8.135
 31
0.0
  0
LINE
  5
772
  8
0
  6
BYBLOCK
 62
     0
 10
10.240013
 20
-8.535
 30
0.0
 11
6.199998
 21
-8.535
 31
0.0
  0
ARC
  5
773
  8
0
  6
BYBLOCK
 62
     0
 10
6.324995
 20
-8.539861
 30
0.0
 40
0.124997
 50
180.0
 51
270.0
  0
LINE
  5
774
  8
0
  6
BYBLOCK
 62
     0
 10
7.579978
 20
-10.359829
 30
0.0
 11
7.579978
 21
-8.789855
 31
0.0
  0
LINE
  5
775
  8
0
  6
BYBLOCK
 62
     0
 10
7.454981
 20
-8.664858
 30
0.0
 11
6.324995
 21
-8.664858
 31
0.0
  0
ARC
  5
776
  8
0
  6
BYBLOCK
 62
     0
 10
7.454981
 20
-8.789855
 30
0.0
 40
0.124997
 50
360.0
 51
90.0
  0
LINE
  5
777
  8
0
  6
BYBLOCK
 62
     0
 10
10.240013
 20
-7.72224
 30
0.0
 11
10.240013
 21
-7.985
 31
0.0
  0
LINE
  5
778
  8
0
  6
BYBLOCK
 62
     0
 10
11.519998
 20
-8.685
 30
0.0
 11
9.740013
 21
-8.685
 31
0.0
  0
LINE
  5
779
  8
0
  6
BYBLOCK
 62
     0
 10
10.240013
 20
-8.94756
 30
0.0
 11
11.519998
 21
-8.94756
 31
0.0
  0
LINE
  5
77A
  8
0
  6
BYBLOCK
 62
     0
 10
11.519998
 20
-7.985
 30
0.0
 11
9.740013
 21
-7.985
 31
0.0
  0
LINE
  5
77B
  8
0
  6
BYBLOCK
 62
     0
 10
9.740013
 20
-8.535
 30
0.0
 11
9.740013
 21
-8.685
 31
0.0
  0
LINE
  5
77C
  8
0
  6
BYBLOCK
 62
     0
 10
10.040013
 20
-8.535
 30
0.0
 11
10.040013
 21
-8.685
 31
0.0
  0
LINE
  5
77D
  8
0
  6
BYBLOCK
 62
     0
 10
10.240013
 20
-8.685
 30
0.0
 11
10.240013
 21
-8.94756
 31
0.0
  0
LINE
  5
77E
  8
0
  6
BYBLOCK
 62
     0
 10
9.740013
 20
-7.985
 30
0.0
 11
9.740013
 21
-8.135
 31
0.0
  0
LINE
  5
77F
  8
0
  6
BYBLOCK
 62
     0
 10
10.240013
 20
-8.135
 30
0.0
 11
10.240013
 21
-8.535
 31
0.0
  0
LINE
  5
780
  8
0
  6
BYBLOCK
 62
     0
 10
10.040013
 20
-7.985
 30
0.0
 11
10.040013
 21
-8.135
 31
0.0
  0
LINE
  5
781
  8
0
  6
BYBLOCK
 62
     0
 10
10.240013
 20
-7.72224
 30
0.0
 11
11.519998
 21
-7.72224
 31
0.0
  0
LINE
  5
782
  8
0
  6
BYBLOCK
 62
     0
 10
17.609974
 20
-7.21489
 30
0.0
 11
17.609974
 21
-12.315
 31
0.0
  0
LINE
  5
783
  8
0
  6
BYBLOCK
 62
     0
 10
17.519974
 20
-11.935
 30
0.0
 11
14.469974
 21
-11.935
 31
0.0
  0
LINE
  5
784
  8
0
  6
BYBLOCK
 62
     0
 10
14.469974
 20
-11.935
 30
0.0
 11
13.392431
 21
-12.125
 31
0.0
  0
LINE
  5
785
  8
0
  6
BYBLOCK
 62
     0
 10
17.519974
 20
-11.935
 30
0.0
 11
17.519974
 21
-12.315
 31
0.0
  0
LINE
  5
786
  8
0
  6
BYBLOCK
 62
     0
 10
17.679972
 20
-12.315
 30
0.0
 11
17.519974
 21
-12.315
 31
0.0
  0
LINE
  5
787
  8
0
  6
BYBLOCK
 62
     0
 10
17.609974
 20
-10.845003
 30
0.0
 11
17.679972
 21
-10.845003
 31
0.0
  0
ARC
  5
788
  8
0
  6
BYBLOCK
 62
     0
 10
16.814998
 20
-6.365
 30
0.0
 40
0.43
 50
270.0
 51
90.0
  0
ARC
  5
789
  8
0
  6
BYBLOCK
 62
     0
 10
15.714998
 20
-6.645
 30
0.0
 40
0.15
 50
180.0
 51
270.0
  0
LINE
  5
78A
  8
0
  6
BYBLOCK
 62
     0
 10
15.714998
 20
-6.795
 30
0.0
 11
16.814998
 21
-6.795
 31
0.0
  0
ARC
  5
78B
  8
0
  6
BYBLOCK
 62
     0
 10
15.994998
 20
-6.365
 30
0.0
 40
0.43
 50
90.0
 51
180.0
  0
LINE
  5
78C
  8
0
  6
BYBLOCK
 62
     0
 10
15.564998
 20
-6.365
 30
0.0
 11
15.564998
 21
-6.645
 31
0.0
  0
LINE
  5
78D
  8
0
  6
BYBLOCK
 62
     0
 10
16.814998
 20
-5.935
 30
0.0
 11
15.994998
 21
-5.935
 31
0.0
  0
LINE
  5
78E
  8
0
  6
BYBLOCK
 62
     0
 10
17.649972
 20
-5.51491
 30
0.0
 11
17.649972
 21
-7.21489
 31
0.0
  0
LINE
  5
78F
  8
0
  6
BYBLOCK
 62
     0
 10
17.649972
 20
-7.21489
 30
0.0
 11
17.609974
 21
-7.21489
 31
0.0
  0
LINE
  5
790
  8
0
  6
BYBLOCK
 62
     0
 10
17.649972
 20
-5.51491
 30
0.0
 11
17.609974
 21
-5.51491
 31
0.0
  0
LINE
  5
791
  8
0
  6
BYBLOCK
 62
     0
 10
11.519998
 20
-1.164988
 30
0.0
 11
17.609974
 21
-1.164988
 31
0.0
  0
LINE
  5
792
  8
0
  6
BYBLOCK
 62
     0
 10
11.200003
 20
-0.415
 30
0.0
 11
15.33803
 21
-0.415
 31
0.0
  0
LINE
  5
793
  8
0
  6
BYBLOCK
 62
     0
 10
12.494498
 20
-0.265
 30
0.0
 11
13.244498
 21
-0.265
 31
0.0
  0
LINE
  5
794
  8
0
 10
9.989972
 20
0.715
 30
0.0
 11
9.989972
 21
-1.685047
 31
0.0
  0
LINE
  5
795
  8
0
  6
BYBLOCK
 62
     0
 10
9.679972
 20
0.715
 30
0.0
 11
9.679972
 21
-1.685047
 31
0.0
  0
LINE
  5
796
  8
0
  6
BYBLOCK
 62
     0
 10
12.379028
 20
-0.415
 30
0.0
 11
12.494498
 21
-0.265
 31
0.0
  0
LINE
  5
797
  8
0
  6
BYBLOCK
 62
     0
 10
10.240013
 20
-4.195
 30
0.0
 11
6.199998
 21
-4.195
 31
0.0
  0
LINE
  5
798
  8
0
  6
BYBLOCK
 62
     0
 10
10.240013
 20
-4.595
 30
0.0
 11
6.199998
 21
-4.595
 31
0.0
  0
LINE
  5
799
  8
0
  6
BYBLOCK
 62
     0
 10
8.400035
 20
-1.955
 30
0.0
 11
8.110061
 21
-2.244974
 31
0.0
  0
LINE
  5
79A
  8
0
  6
BYBLOCK
 62
     0
 10
7.579978
 20
-2.369971
 30
0.0
 11
7.579978
 21
-3.939945
 31
0.0
  0
ARC
  5
79B
  8
0
  6
BYBLOCK
 62
     0
 10
6.324995
 20
-4.189939
 30
0.0
 40
0.124997
 50
90.0
 51
180.0
  0
LINE
  5
79C
  8
0
  6
BYBLOCK
 62
     0
 10
7.454981
 20
-4.064942
 30
0.0
 11
6.324995
 21
-4.064942
 31
0.0
  0
ARC
  5
79D
  8
0
  6
BYBLOCK
 62
     0
 10
7.454981
 20
-3.939945
 30
0.0
 40
0.124997
 50
270.0
 51
0.0
  0
ARC
  5
79E
  8
0
  6
BYBLOCK
 62
     0
 10
7.704975
 20
-2.369971
 30
0.0
 40
0.124997
 50
90.0
 51
180.0
  0
LINE
  5
79F
  8
0
  6
BYBLOCK
 62
     0
 10
8.110061
 20
-2.244974
 30
0.0
 11
7.704975
 21
-2.244974
 31
0.0
  0
LINE
  5
7A0
  8
0
  6
BYBLOCK
 62
     0
 10
11.519998
 20
-4.745
 30
0.0
 11
9.740013
 21
-4.745
 31
0.0
  0
LINE
  5
7A1
  8
0
  6
BYBLOCK
 62
     0
 10
10.240013
 20
-5.00756
 30
0.0
 11
11.519998
 21
-5.00756
 31
0.0
  0
LINE
  5
7A2
  8
0
  6
BYBLOCK
 62
     0
 10
11.519998
 20
-4.045
 30
0.0
 11
9.740013
 21
-4.045
 31
0.0
  0
LINE
  5
7A3
  8
0
  6
BYBLOCK
 62
     0
 10
10.240013
 20
-3.78224
 30
0.0
 11
11.519998
 21
-3.78224
 31
0.0
  0
LINE
  5
7A4
  8
0
  6
BYBLOCK
 62
     0
 10
9.740013
 20
-4.045
 30
0.0
 11
9.740013
 21
-4.195
 31
0.0
  0
LINE
  5
7A5
  8
0
  6
BYBLOCK
 62
     0
 10
10.040013
 20
-4.045
 30
0.0
 11
10.040013
 21
-4.195
 31
0.0
  0
LINE
  5
7A6
  8
0
  6
BYBLOCK
 62
     0
 10
10.240013
 20
-4.745
 30
0.0
 11
10.240013
 21
-5.00756
 31
0.0
  0
LINE
  5
7A7
  8
0
  6
BYBLOCK
 62
     0
 10
9.740013
 20
-4.595
 30
0.0
 11
9.740013
 21
-4.745
 31
0.0
  0
LINE
  5
7A8
  8
0
  6
BYBLOCK
 62
     0
 10
10.240013
 20
-4.195
 30
0.0
 11
10.240013
 21
-4.595
 31
0.0
  0
LINE
  5
7A9
  8
0
  6
BYBLOCK
 62
     0
 10
10.040013
 20
-4.595
 30
0.0
 11
10.040013
 21
-4.745
 31
0.0
  0
LINE
  5
7AA
  8
0
  6
BYBLOCK
 62
     0
 10
10.240013
 20
-3.78224
 30
0.0
 11
10.240013
 21
-4.045
 31
0.0
  0
LINE
  5
7AB
  8
0
  6
BYBLOCK
 62
     0
 10
11.200003
 20
-1.955
 30
0.0
 11
8.400035
 21
-1.955
 31
0.0
  0
ARC
  5
7AC
  8
0
  6
BYBLOCK
 62
     0
 10
10.179972
 20
-1.685047
 30
0.0
 40
0.5
 50
180.0
 51
212.677293
  0
LINE
  5
7AD
  8
0
  6
BYBLOCK
 62
     0
 10
10.045621
 20
-1.819397
 30
0.0
 11
10.181224
 21
-1.955
 31
0.0
  0
ARC
  5
7AE
  8
0
  6
BYBLOCK
 62
     0
 10
10.179972
 20
-1.685047
 30
0.0
 40
0.19
 50
180.0
 51
225.0
  0
LINE
  5
7AF
  8
0
  6
BYBLOCK
 62
     0
 10
11.200003
 20
-0.415
 30
0.0
 11
11.200003
 21
-1.955
 31
0.0
  0
LINE
  5
7B0
  8
0
  6
BYBLOCK
 62
     0
 10
11.635201
 20
-1.164988
 30
0.0
 11
11.635201
 21
-0.415
 31
0.0
  0
LINE
  5
7B1
  8
0
  6
BYBLOCK
 62
     0
 10
9.989972
 20
0.715
 30
0.0
 11
9.679972
 21
0.715
 31
0.0
  0
LINE
  5
7B2
  8
0
  6
BYBLOCK
 62
     0
 10
13.359968
 20
-0.415
 30
0.0
 11
13.244498
 21
-0.265
 31
0.0
  0
LINE
  5
7B3
  8
0
  6
BYBLOCK
 62
     0
 10
16.837537
 20
-0.709993
 30
0.0
 11
15.633023
 21
-0.709993
 31
0.0
  0
LINE
  5
7B4
  8
0
  6
BYBLOCK
 62
     0
 10
16.621542
 20
-0.709993
 30
0.0
 11
16.837537
 21
-0.709993
 31
0.0
  0
LINE
  5
7B5
  8
0
  6
BYBLOCK
 62
     0
 10
15.33803
 20
-0.415
 30
0.0
 11
15.633023
 21
-0.709993
 31
0.0
  0
LINE
  5
7B6
  8
0
  6
BYBLOCK
 62
     0
 10
17.609974
 20
-1.96478
 30
0.0
 11
17.679972
 21
-1.96478
 31
0.0
  0
LINE
  5
7B7
  8
0
  6
BYBLOCK
 62
     0
 10
17.037532
 20
-0.909988
 30
0.0
 11
17.609974
 21
-0.909988
 31
0.0
  0
LINE
  5
7B8
  8
0
  6
BYBLOCK
 62
     0
 10
16.837537
 20
-0.709993
 30
0.0
 11
17.037532
 21
-0.909988
 31
0.0
  0
LINE
  5
7B9
  8
0
  6
BYBLOCK
 62
     0
 10
17.509974
 20
-0.415
 30
0.0
 11
17.509974
 21
-0.909988
 31
0.0
  0
LINE
  5
7BA
  8
0
  6
BYBLOCK
 62
     0
 10
17.509974
 20
-0.415
 30
0.0
 11
17.679972
 21
-0.415
 31
0.0
  0
ENDBLK
  5
7BC
  8
0
  0
ENDSEC
  0
SECTION
  2
ENTITIES
  0
LINE
  5
384
  8
0
  6
BYBLOCK
 62
     0
 10
9.125
 20
7.08
 30
0.0
 11
11.095
 21
7.08
 31
0.0
  0
ARC
  5
388
  8
0
  6
BYBLOCK
 62
     0
 10
11.209998
 20
5.85
 30
0.0
 40
0.1
 50
360.0
 51
90.0
  0
LINE
  5
393
  8
0
  6
BYBLOCK
 62
     1
 10
9.308
 20
5.45
 30
0.0
 11
9.862
 21
5.45
 31
0.0
  0
CIRCLE
  5
394
  8
0
  6
BYBLOCK
 62
     0
 10
10.11
 20
6.365
 30
0.0
 40
0.295
  0
LINE
  5
397
  8
0
  6
BYBLOCK
 62
     0
 10
11.095
 20
5.95
 30
0.0
 11
11.209998
 21
5.95
 31
0.0
  0
LINE
  5
398
  8
0
  6
HIDDEN
 62
     0
 10
9.125
 20
4.68
 30
0.0
 11
11.095
 21
4.68
 31
0.0
  0
LINE
  5
399
  8
0
  6
BYBLOCK
 62
     0
 10
11.140002
 20
4.41
 30
0.0
 11
11.140002
 21
4.120026
 31
0.0
  0
LINE
  5
39A
  8
0
  6
BYBLOCK
 62
     0
 10
11.095
 20
4.41
 30
0.0
 11
11.309998
 21
4.41
 31
0.0
  0
LINE
  5
39B
  8
0
  6
BYBLOCK
 62
     1
 10
9.585
 20
5.727
 30
0.0
 11
9.585
 21
5.173
 31
0.0
  0
CIRCLE
  5
39C
  8
0
  6
HIDDEN
 62
     1
 10
9.585
 20
5.45
 30
0.0
 40
0.215
  0
CIRCLE
  5
39D
  8
0
  6
BYBLOCK
 62
     0
 10
10.11
 20
5.1125
 30
0.0
 40
0.1975
  0
LINE
  5
3A2
  8
0
  6
BYBLOCK
 62
     0
 10
11.650008
 20
2.32
 30
0.0
 11
11.309998
 21
2.32
 31
0.0
  0
LINE
  5
3A3
  8
0
  6
BYBLOCK
 62
     0
 10
11.557363
 20
2.439052
 30
0.0
 11
11.309998
 21
2.58276
 31
0.0
  0
ARC
  5
3A4
  8
0
  6
BYBLOCK
 62
     0
 10
11.525012
 20
2.318315
 30
0.0
 40
0.124997
 50
0.0
 51
75.0
  0
ARC
  5
3A5
  8
0
  6
BYBLOCK
 62
     0
 10
11.404898
 20
1.97
 30
0.0
 40
0.2
 50
90.0
 51
270.0
  0
LINE
  5
3A6
  8
0
  6
BYBLOCK
 62
     0
 10
11.495602
 20
1.84394
 30
0.0
 11
11.278838
 21
2.060704
 31
0.0
  0
LINE
  5
3A7
  8
0
  6
BYBLOCK
 62
     0
 10
11.650008
 20
2.17
 30
0.0
 11
11.404898
 21
2.17
 31
0.0
  0
LINE
  5
3A8
  8
0
  6
BYBLOCK
 62
     0
 10
11.650008
 20
1.77
 30
0.0
 11
11.404898
 21
1.77
 31
0.0
  0
CIRCLE
  5
3A9
  8
0
  6
BYBLOCK
 62
     0
 10
11.404898
 20
1.97
 30
0.0
 40
0.1553
  0
LINE
  5
3AA
  8
0
  6
BYBLOCK
 62
     0
 10
11.530957
 20
1.879296
 30
0.0
 11
11.314194
 21
2.09606
 31
0.0
  0
LINE
  5
3AB
  8
0
  6
BYBLOCK
 62
     0
 10
11.650008
 20
1.62
 30
0.0
 11
11.309998
 21
1.62
 31
0.0
  0
LINE
  5
3AC
  8
0
  6
BYBLOCK
 62
     0
 10
11.557363
 20
1.501148
 30
0.0
 11
11.309998
 21
1.35744
 31
0.0
  0
ARC
  5
3AD
  8
0
  6
BYBLOCK
 62
     0
 10
11.525012
 20
1.621885
 30
0.0
 40
0.124997
 50
285.0
 51
0.0
  0
LINE
  5
3AE
  8
0
  6
BYBLOCK
 62
     0
 10
11.650008
 20
2.318315
 30
0.0
 11
11.650008
 21
1.621885
 31
0.0
  0
LINE
  5
3AF
  8
0
  6
BYBLOCK
 62
     0
 10
11.309998
 20
5.85
 30
0.0
 11
11.309998
 21
2.146051
 31
0.0
  0
CIRCLE
  5
3B0
  8
0
  6
BYBLOCK
 62
     0
 10
9.64
 20
3.744649
 30
0.0
 40
0.235
  0
CIRCLE
  5
3B1
  8
0
  6
BYBLOCK
 62
     0
 10
10.58
 20
3.744649
 30
0.0
 40
0.235
  0
LINE
  5
3B4
  8
0
  6
BYBLOCK
 62
     0
 10
11.095
 20
7.08
 30
0.0
 11
11.095
 21
4.120026
 31
0.0
  0
LINE
  5
3B6
  8
0
  6
BYBLOCK
 62
     0
 10
9.125
 20
7.08
 30
0.0
 11
9.125
 21
4.120026
 31
0.0
  0
LINE
  5
3B8
  8
0
  6
BYBLOCK
 62
     0
 10
11.650008
 20
-1.62
 30
0.0
 11
11.309998
 21
-1.62
 31
0.0
  0
LINE
  5
3B9
  8
0
  6
BYBLOCK
 62
     0
 10
11.557363
 20
-1.500948
 30
0.0
 11
11.309998
 21
-1.35724
 31
0.0
  0
ARC
  5
3BA
  8
0
  6
BYBLOCK
 62
     0
 10
11.525012
 20
-1.621685
 30
0.0
 40
0.124997
 50
0.0
 51
75.0
  0
ARC
  5
3BB
  8
0
  6
BYBLOCK
 62
     0
 10
11.404898
 20
-1.97
 30
0.0
 40
0.2
 50
90.0
 51
270.0
  0
LINE
  5
3BC
  8
0
  6
BYBLOCK
 62
     0
 10
11.495602
 20
-2.09606
 30
0.0
 11
11.278838
 21
-1.879296
 31
0.0
  0
LINE
  5
3BD
  8
0
  6
BYBLOCK
 62
     0
 10
11.650008
 20
-1.77
 30
0.0
 11
11.404898
 21
-1.77
 31
0.0
  0
LINE
  5
3BE
  8
0
  6
BYBLOCK
 62
     0
 10
11.650008
 20
-2.17
 30
0.0
 11
11.404898
 21
-2.17
 31
0.0
  0
CIRCLE
  5
3BF
  8
0
  6
BYBLOCK
 62
     0
 10
11.404898
 20
-1.97
 30
0.0
 40
0.1553
  0
LINE
  5
3C0
  8
0
  6
BYBLOCK
 62
     0
 10
11.530957
 20
-2.060704
 30
0.0
 11
11.314194
 21
-1.84394
 31
0.0
  0
LINE
  5
3C1
  8
0
  6
BYBLOCK
 62
     0
 10
11.650008
 20
-2.32
 30
0.0
 11
11.309998
 21
-2.32
 31
0.0
  0
LINE
  5
3C2
  8
0
  6
BYBLOCK
 62
     0
 10
11.557363
 20
-2.438852
 30
0.0
 11
11.309998
 21
-2.58256
 31
0.0
  0
ARC
  5
3C3
  8
0
  6
BYBLOCK
 62
     0
 10
11.525012
 20
-2.318115
 30
0.0
 40
0.124997
 50
285.0
 51
0.0
  0
LINE
  5
3C4
  8
0
  6
BYBLOCK
 62
     0
 10
11.650008
 20
-1.621685
 30
0.0
 11
11.650008
 21
-2.318115
 31
0.0
  0
LINE
  5
3C6
  8
0
  6
BYBLOCK
 62
     0
 10
11.140002
 20
-4.119826
 30
0.0
 11
11.140002
 21
-4.41
 31
0.0
  0
LINE
  5
3C7
  8
0
  6
BYBLOCK
 62
     0
 10
11.095
 20
-4.41
 30
0.0
 11
11.309998
 21
-4.41
 31
0.0
  0
ARC
  5
3CA
  8
0
  6
BYBLOCK
 62
     0
 10
11.209998
 20
-5.66
 30
0.0
 40
0.1
 50
270.0
 51
0.0
  0
LINE
  5
3CB
  8
0
  6
BYBLOCK
 62
     1
 10
9.308
 20
-5.57
 30
0.0
 11
9.862
 21
-5.57
 31
0.0
  0
LINE
  5
3CC
  8
0
  6
HIDDEN
 62
     0
 10
9.125
 20
-5.95
 30
0.0
 11
9.3625
 21
-5.95
 31
0.0
  0
LINE
  5
3CD
  8
0
  6
HIDDEN
 62
     1
 10
9.8075
 20
-5.3675
 30
0.0
 11
9.8075
 21
-5.95
 31
0.0
  0
LINE
  5
3CE
  8
0
  6
HIDDEN
 62
     1
 10
9.3625
 20
-5.3675
 30
0.0
 11
9.3625
 21
-5.95
 31
0.0
  0
LINE
  5
3CF
  8
0
  6
HIDDEN
 62
     0
 10
9.8075
 20
-5.95
 30
0.0
 11
11.095
 21
-5.95
 31
0.0
  0
CIRCLE
  5
3D1
  8
0
  6
BYBLOCK
 62
     0
 10
10.11
 20
-6.365
 30
0.0
 40
0.295
  0
LINE
  5
3D2
  8
0
  6
BYBLOCK
 62
     0
 10
11.095
 20
-5.95
 30
0.0
 11
11.309998
 21
-5.95
 31
0.0
  0
LINE
  5
3D3
  8
0
  6
BYBLOCK
 62
     0
 10
11.095
 20
-5.76
 30
0.0
 11
11.209998
 21
-5.76
 31
0.0
  0
LINE
  5
3D4
  8
0
  6
BYBLOCK
 62
     0
 10
11.1301
 20
-5.95
 30
0.0
 11
11.155002
 21
-5.95
 31
0.0
  0
LINE
  5
3D5
  8
0
  6
BYBLOCK
 62
     0
 10
11.309998
 20
-4.119826
 30
0.0
 11
11.309998
 21
-5.95
 31
0.0
  0
CIRCLE
  5
3D6
  8
0
  6
BYBLOCK
 62
     0
 10
10.11
 20
-5.1125
 30
0.0
 40
0.1975
  0
ARC
  5
3D7
  8
0
  6
HIDDEN
 62
     1
 10
9.585
 20
-5.3675
 30
0.0
 40
0.2225
 50
0.0
 51
180.0
  0
LINE
  5
3D8
  8
0
  6
BYBLOCK
 62
     1
 10
9.585
 20
-5.0905
 30
0.0
 11
9.585
 21
-5.939
 31
0.0
  0
LINE
  5
3DB
  8
0
  6
BYBLOCK
 62
     0
 10
11.309998
 20
-2.146051
 30
0.0
 11
11.309998
 21
-4.119826
 31
0.0
  0
CIRCLE
  5
3DC
  8
0
  6
BYBLOCK
 62
     0
 10
9.64
 20
-3.744649
 30
0.0
 40
0.235
  0
CIRCLE
  5
3DD
  8
0
  6
BYBLOCK
 62
     0
 10
10.58
 20
-3.744649
 30
0.0
 40
0.235
  0
LINE
  5
3DE
  8
0
  6
BYBLOCK
 62
     0
 10
9.125
 20
-7.08
 30
0.0
 11
11.095
 21
-7.08
 31
0.0
  0
LINE
  5
3DF
  8
0
  6
BYBLOCK
 62
     0
 10
11.095
 20
-4.119826
 30
0.0
 11
11.095
 21
-7.08
 31
0.0
  0
LINE
  5
3E0
  8
0
  6
BYBLOCK
 62
     0
 10
9.125
 20
-4.119826
 30
0.0
 11
9.125
 21
-7.08
 31
0.0
  0
LINE
  5
3E1
  8
0
  6
BYBLOCK
 62
     0
 10
11.309998
 20
1.793949
 30
0.0
 11
11.309998
 21
-1.793949
 31
0.0
  0
LINE
  5
3E4
  8
0
  6
BYBLOCK
 62
     0
 10
5.155
 20
7.08
 30
0.0
 11
7.125
 21
7.08
 31
0.0
  0
LINE
  5
3E5
  8
0
  6
BYBLOCK
 62
     0
 10
1.185
 20
7.08
 30
0.0
 11
3.155
 21
7.08
 31
0.0
  0
LINE
  5
403
  8
0
  6
HIDDEN
 62
     0
 10
6.935
 20
5.95
 30
0.0
 11
6.81953
 21
6.1
 31
0.0
  0
LINE
  5
404
  8
0
  6
HIDDEN
 62
     0
 10
5.345
 20
5.95
 30
0.0
 11
5.46047
 21
6.1
 31
0.0
  0
LINE
  5
405
  8
0
  6
HIDDEN
 62
     0
 10
6.81953
 20
6.1
 30
0.0
 11
5.46047
 21
6.1
 31
0.0
  0
CIRCLE
  5
406
  8
0
  6
BYBLOCK
 62
     0
 10
6.14
 20
6.365
 30
0.0
 40
0.295
  0
LINE
  5
408
  8
0
  6
BYBLOCK
 62
     0
 10
7.339976
 20
4.41
 30
0.0
 11
7.339976
 21
4.120026
 31
0.0
  0
LINE
  5
409
  8
0
  6
BYBLOCK
 62
     0
 10
7.16998
 20
4.41
 30
0.0
 11
7.16998
 21
4.120026
 31
0.0
  0
LINE
  5
40A
  8
0
  6
BYBLOCK
 62
     0
 10
8.910047
 20
4.41
 30
0.0
 11
8.910047
 21
4.120026
 31
0.0
  0
LINE
  5
40B
  8
0
  6
BYBLOCK
 62
     0
 10
9.080042
 20
4.41
 30
0.0
 11
9.080042
 21
4.120026
 31
0.0
  0
LINE
  5
40C
  8
0
  6
BYBLOCK
 62
     0
 10
5.11002
 20
4.41
 30
0.0
 11
5.11002
 21
4.120026
 31
0.0
  0
LINE
  5
40D
  8
0
  6
HIDDEN
 62
     0
 10
5.155
 20
4.68
 30
0.0
 11
7.125
 21
4.68
 31
0.0
  0
CIRCLE
  5
40E
  8
0
  6
BYBLOCK
 62
     0
 10
6.14
 20
5.1125
 30
0.0
 40
0.1975
  0
ARC
  5
40F
  8
0
  6
BYBLOCK
 62
     0
 10
1.070002
 20
5.85
 30
0.0
 40
0.1
 50
90.0
 51
180.0
  0
LINE
  5
410
  8
0
  6
BYBLOCK
 62
     0
 10
1.070002
 20
5.95
 30
0.0
 11
1.185
 21
5.95
 31
0.0
  0
CIRCLE
  5
411
  8
0
  6
BYBLOCK
 62
     0
 10
2.17
 20
6.365
 30
0.0
 40
0.295
  0
LINE
  5
413
  8
0
  6
BYBLOCK
 62
     1
 10
2.418
 20
5.45
 30
0.0
 11
2.972
 21
5.45
 31
0.0
  0
CIRCLE
  5
414
  8
0
  6
BYBLOCK
 62
     0
 10
4.421189
 20
3.91
 30
0.0
 40
0.151199
  0
CIRCLE
  5
415
  8
0
  6
BYBLOCK
 62
     0
 10
3.871189
 20
3.91
 30
0.0
 40
0.151199
  0
LINE
  5
416
  8
0
  6
BYBLOCK
 62
     0
 10
3.199958
 20
4.41
 30
0.0
 11
3.199958
 21
4.120026
 31
0.0
  0
LINE
  5
417
  8
0
  6
BYBLOCK
 62
     0
 10
3.369953
 20
4.41
 30
0.0
 11
3.369953
 21
4.120026
 31
0.0
  0
LINE
  5
418
  8
0
  6
BYBLOCK
 62
     0
 10
4.940024
 20
4.41
 30
0.0
 11
4.940024
 21
4.120026
 31
0.0
  0
LINE
  5
419
  8
0
  6
BYBLOCK
 62
     0
 10
0.970002
 20
4.41
 30
0.0
 11
1.185
 21
4.41
 31
0.0
  0
LINE
  5
41A
  8
0
  6
BYBLOCK
 62
     0
 10
1.139998
 20
4.41
 30
0.0
 11
1.139998
 21
4.120026
 31
0.0
  0
LINE
  5
41B
  8
0
  6
HIDDEN
 62
     0
 10
1.185
 20
4.68
 30
0.0
 11
3.155
 21
4.68
 31
0.0
  0
LINE
  5
41C
  8
0
  6
BYBLOCK
 62
     0
 10
0.970002
 20
4.120026
 30
0.0
 11
3.369953
 21
4.120026
 31
0.0
  0
LINE
  5
41D
  8
0
  6
BYBLOCK
 62
     1
 10
2.695
 20
5.727
 30
0.0
 11
2.695
 21
5.173
 31
0.0
  0
CIRCLE
  5
41E
  8
0
  6
HIDDEN
 62
     1
 10
2.695
 20
5.45
 30
0.0
 40
0.215
  0
LINE
  5
41F
  8
0
  6
BYBLOCK
 62
     0
 10
0.970002
 20
5.85
 30
0.0
 11
0.970002
 21
4.120026
 31
0.0
  0
CIRCLE
  5
420
  8
0
  6
BYBLOCK
 62
     0
 10
2.17
 20
5.1125
 30
0.0
 40
0.1975
  0
LINE
  5
422
  8
0
  6
BYBLOCK
 62
     0
 10
3.155
 20
5.95
 30
0.0
 11
5.345
 21
5.95
 31
0.0
  0
LINE
  5
423
  8
0
  6
BYBLOCK
 62
     0
 10
3.155
 20
4.41
 30
0.0
 11
5.155
 21
4.41
 31
0.0
  0
LINE
  5
424
  8
0
  6
BYBLOCK
 62
     0
 10
4.940024
 20
4.120026
 30
0.0
 11
7.339976
 21
4.120026
 31
0.0
  0
ARC
  5
425
  8
0
  6
BYBLOCK
 62
     0
 10
8.78505
 20
1.884979
 30
0.0
 40
0.124997
 50
0.0
 51
90.0
  0
ARC
  5
426
  8
0
  6
BYBLOCK
 62
     0
 10
8.78505
 20
2.294969
 30
0.0
 40
0.124997
 50
270.0
 51
0.0
  0
ARC
  5
427
  8
0
  6
BYBLOCK
 62
     0
 10
7.464973
 20
1.884979
 30
0.0
 40
0.124997
 50
90.0
 51
180.0
  0
ARC
  5
428
  8
0
  6
BYBLOCK
 62
     0
 10
7.464973
 20
2.294969
 30
0.0
 40
0.124997
 50
180.0
 51
270.0
  0
LINE
  5
429
  8
0
  6
BYBLOCK
 62
     0
 10
8.78505
 20
2.009976
 30
0.0
 11
7.464973
 21
2.009976
 31
0.0
  0
LINE
  5
42A
  8
0
  6
BYBLOCK
 62
     0
 10
8.78505
 20
2.169972
 30
0.0
 11
7.464973
 21
2.169972
 31
0.0
  0
ARC
  5
42B
  8
0
  6
BYBLOCK
 62
     0
 10
4.815028
 20
1.884979
 30
0.0
 40
0.124997
 50
0.0
 51
90.0
  0
ARC
  5
42C
  8
0
  6
BYBLOCK
 62
     0
 10
4.815028
 20
2.294969
 30
0.0
 40
0.124997
 50
270.0
 51
0.0
  0
ARC
  5
42D
  8
0
  6
BYBLOCK
 62
     0
 10
3.49495
 20
1.884979
 30
0.0
 40
0.124997
 50
90.0
 51
180.0
  0
ARC
  5
42E
  8
0
  6
BYBLOCK
 62
     0
 10
3.49495
 20
2.294969
 30
0.0
 40
0.124997
 50
180.0
 51
270.0
  0
LINE
  5
42F
  8
0
  6
BYBLOCK
 62
     0
 10
4.815028
 20
2.009976
 30
0.0
 11
3.49495
 21
2.009976
 31
0.0
  0
LINE
  5
430
  8
0
  6
BYBLOCK
 62
     0
 10
4.815028
 20
2.169972
 30
0.0
 11
3.49495
 21
2.169972
 31
0.0
  0
LINE
  5
431
  8
0
  6
BYBLOCK
 62
     0
 10
0.970002
 20
2.300058
 30
0.0
 11
3.369953
 21
2.300058
 31
0.0
  0
LINE
  5
432
  8
0
  6
BYBLOCK
 62
     0
 10
4.940024
 20
2.300058
 30
0.0
 11
7.339976
 21
2.300058
 31
0.0
  0
CIRCLE
  5
433
  8
0
  6
BYBLOCK
 62
     0
 10
1.7
 20
3.744649
 30
0.0
 40
0.235
  0
LINE
  5
434
  8
0
  6
BYBLOCK
 62
     0
 10
0.970002
 20
4.120026
 30
0.0
 11
0.970002
 21
2.146051
 31
0.0
  0
CIRCLE
  5
435
  8
0
  6
BYBLOCK
 62
     0
 10
2.64
 20
3.744649
 30
0.0
 40
0.235
  0
CIRCLE
  5
436
  8
0
  6
BYBLOCK
 62
     0
 10
5.67
 20
3.744649
 30
0.0
 40
0.235
  0
CIRCLE
  5
437
  8
0
  6
BYBLOCK
 62
     0
 10
6.61
 20
3.744649
 30
0.0
 40
0.235
  0
LINE
  5
43E
  8
0
  6
BYBLOCK
 62
     0
 10
-1.139998
 20
4.41
 30
0.0
 11
-1.139998
 21
4.120026
 31
0.0
  0
LINE
  5
440
  8
0
  6
BYBLOCK
 62
     0
 10
-3.199958
 20
4.41
 30
0.0
 11
-3.199958
 21
4.120026
 31
0.0
  0
LINE
  5
441
  8
0
  6
BYBLOCK
 62
     0
 10
-1.185
 20
4.41
 30
0.0
 11
-0.970002
 21
4.41
 31
0.0
  0
LINE
  5
44E
  8
0
  6
BYBLOCK
 62
     0
 10
-5.11002
 20
4.41
 30
0.0
 11
-5.11002
 21
4.120026
 31
0.0
  0
LINE
  5
44F
  8
0
  6
BYBLOCK
 62
     0
 10
-4.940024
 20
4.41
 30
0.0
 11
-4.940024
 21
4.120026
 31
0.0
  0
LINE
  5
450
  8
0
  6
BYBLOCK
 62
     0
 10
-3.369953
 20
4.41
 30
0.0
 11
-3.369953
 21
4.120026
 31
0.0
  0
LINE
  5
451
  8
0
  6
BYBLOCK
 62
     0
 10
-7.16998
 20
4.41
 30
0.0
 11
-7.16998
 21
4.120026
 31
0.0
  0
LINE
  5
455
  8
0
  6
BYBLOCK
 62
     0
 10
-5.155
 20
4.41
 30
0.0
 11
-3.155
 21
4.41
 31
0.0
  0
LINE
  5
458
  8
0
  6
BYBLOCK
 62
     0
 10
-3.369953
 20
4.120026
 30
0.0
 11
-0.970002
 21
4.120026
 31
0.0
  0
ARC
  5
45A
  8
0
  6
BYBLOCK
 62
     0
 10
0.754988
 20
2.318315
 30
0.0
 40
0.124997
 50
105.0
 51
180.0
  0
LINE
  5
45B
  8
0
  6
BYBLOCK
 62
     0
 10
0.629992
 20
2.17
 30
0.0
 11
0.875102
 21
2.17
 31
0.0
  0
LINE
  5
45C
  8
0
  6
BYBLOCK
 62
     0
 10
0.629992
 20
1.77
 30
0.0
 11
0.875102
 21
1.77
 31
0.0
  0
LINE
  5
45D
  8
0
  6
BYBLOCK
 62
     0
 10
-0.722637
 20
2.439052
 30
0.0
 11
-0.970002
 21
2.58276
 31
0.0
  0
LINE
  5
45E
  8
0
  6
BYBLOCK
 62
     0
 10
-0.629992
 20
2.32
 30
0.0
 11
-0.970002
 21
2.32
 31
0.0
  0
ARC
  5
45F
  8
0
  6
BYBLOCK
 62
     0
 10
-0.754988
 20
2.318315
 30
0.0
 40
0.124997
 50
0.0
 51
75.0
  0
LINE
  5
460
  8
0
  6
BYBLOCK
 62
     0
 10
-0.749043
 20
1.879296
 30
0.0
 11
-0.965806
 21
2.09606
 31
0.0
  0
CIRCLE
  5
461
  8
0
  6
BYBLOCK
 62
     0
 10
-0.875102
 20
1.97
 30
0.0
 40
0.1553
  0
LINE
  5
462
  8
0
  6
BYBLOCK
 62
     0
 10
-0.784398
 20
1.84394
 30
0.0
 11
-1.001162
 21
2.060704
 31
0.0
  0
ARC
  5
463
  8
0
  6
BYBLOCK
 62
     0
 10
-0.875102
 20
1.97
 30
0.0
 40
0.2
 50
90.0
 51
270.0
  0
LINE
  5
464
  8
0
  6
BYBLOCK
 62
     0
 10
-0.629992
 20
2.17
 30
0.0
 11
-0.875102
 21
2.17
 31
0.0
  0
LINE
  5
465
  8
0
  6
BYBLOCK
 62
     0
 10
-0.629992
 20
1.77
 30
0.0
 11
-0.875102
 21
1.77
 31
0.0
  0
ARC
  5
466
  8
0
  6
BYBLOCK
 62
     0
 10
0.754988
 20
1.621885
 30
0.0
 40
0.124997
 50
180.0
 51
255.0
  0
LINE
  5
467
  8
0
  6
BYBLOCK
 62
     0
 10
-0.722637
 20
1.501148
 30
0.0
 11
-0.970002
 21
1.35744
 31
0.0
  0
ARC
  5
468
  8
0
  6
BYBLOCK
 62
     0
 10
-0.754988
 20
1.621885
 30
0.0
 40
0.124997
 50
285.0
 51
0.0
  0
LINE
  5
469
  8
0
  6
BYBLOCK
 62
     0
 10
-0.629992
 20
1.62
 30
0.0
 11
-0.970002
 21
1.62
 31
0.0
  0
LINE
  5
46A
  8
0
  6
BYBLOCK
 62
     0
 10
-0.629992
 20
2.318315
 30
0.0
 11
-0.629992
 21
1.621885
 31
0.0
  0
LINE
  5
46B
  8
0
  6
BYBLOCK
 62
     0
 10
0.629992
 20
2.318315
 30
0.0
 11
0.629992
 21
1.621885
 31
0.0
  0
ARC
  5
46C
  8
0
  6
BYBLOCK
 62
     0
 10
-3.49495
 20
1.884979
 30
0.0
 40
0.124997
 50
0.0
 51
90.0
  0
ARC
  5
46D
  8
0
  6
BYBLOCK
 62
     0
 10
-3.49495
 20
2.294969
 30
0.0
 40
0.124997
 50
270.0
 51
0.0
  0
ARC
  5
46E
  8
0
  6
BYBLOCK
 62
     0
 10
-4.815027
 20
1.884979
 30
0.0
 40
0.124997
 50
90.0
 51
180.0
  0
ARC
  5
46F
  8
0
  6
BYBLOCK
 62
     0
 10
-4.815028
 20
2.294969
 30
0.0
 40
0.124997
 50
180.0
 51
270.0
  0
LINE
  5
470
  8
0
  6
BYBLOCK
 62
     0
 10
-3.49495
 20
2.009976
 30
0.0
 11
-4.815027
 21
2.009976
 31
0.0
  0
LINE
  5
471
  8
0
  6
BYBLOCK
 62
     0
 10
-3.49495
 20
2.169972
 30
0.0
 11
-4.815028
 21
2.169972
 31
0.0
  0
LINE
  5
472
  8
0
  6
BYBLOCK
 62
     0
 10
-3.369953
 20
2.300058
 30
0.0
 11
-0.970002
 21
2.300058
 31
0.0
  0
CIRCLE
  5
473
  8
0
  6
BYBLOCK
 62
     0
 10
-5.67
 20
3.744649
 30
0.0
 40
0.235
  0
CIRCLE
  5
474
  8
0
  6
BYBLOCK
 62
     0
 10
-6.61
 20
3.744649
 30
0.0
 40
0.235
  0
CIRCLE
  5
475
  8
0
  6
BYBLOCK
 62
     0
 10
-1.7
 20
3.744649
 30
0.0
 40
0.235
  0
CIRCLE
  5
476
  8
0
  6
BYBLOCK
 62
     0
 10
-2.64
 20
3.744649
 30
0.0
 40
0.235
  0
LINE
  5
478
  8
0
  6
BYBLOCK
 62
     0
 10
0.629992
 20
1.62
 30
0.0
 11
0.970002
 21
1.62
 31
0.0
  0
LINE
  5
479
  8
0
  6
BYBLOCK
 62
     0
 10
0.722637
 20
1.501148
 30
0.0
 11
0.970002
 21
1.35744
 31
0.0
  0
LINE
  5
47A
  8
0
  6
BYBLOCK
 62
     0
 10
0.722637
 20
2.439052
 30
0.0
 11
0.970002
 21
2.58276
 31
0.0
  0
LINE
  5
47B
  8
0
  6
BYBLOCK
 62
     0
 10
0.629992
 20
2.32
 30
0.0
 11
0.970002
 21
2.32
 31
0.0
  0
CIRCLE
  5
47C
  8
0
  6
BYBLOCK
 62
     0
 10
0.875102
 20
1.97
 30
0.0
 40
0.1553
  0
LINE
  5
47D
  8
0
  6
BYBLOCK
 62
     0
 10
0.784398
 20
1.84394
 30
0.0
 11
1.001162
 21
2.060704
 31
0.0
  0
ARC
  5
47E
  8
0
  6
BYBLOCK
 62
     0
 10
0.875102
 20
1.97
 30
0.0
 40
0.2
 50
270.0
 51
90.0
  0
LINE
  5
47F
  8
0
  6
BYBLOCK
 62
     0
 10
0.749043
 20
1.879296
 30
0.0
 11
0.965806
 21
2.09606
 31
0.0
  0
LINE
  5
481
  8
0
  6
BYBLOCK
 62
     0
 10
0.970002
 20
3.532636
 30
0.0
 11
-0.970002
 21
3.532636
 31
0.0
  0
LINE
  5
485
  8
0
  6
BYBLOCK
 62
     0
 10
7.125
 20
7.08
 30
0.0
 11
7.125
 21
4.120026
 31
0.0
  0
LINE
  5
486
  8
0
  6
BYBLOCK
 62
     0
 10
5.155
 20
7.08
 30
0.0
 11
5.155
 21
4.120026
 31
0.0
  0
LINE
  5
487
  8
0
  6
BYBLOCK
 62
     0
 10
1.185
 20
7.08
 30
0.0
 11
1.185
 21
4.120026
 31
0.0
  0
LINE
  5
488
  8
0
  6
BYBLOCK
 62
     0
 10
3.155
 20
7.08
 30
0.0
 11
3.155
 21
4.120026
 31
0.0
  0
CIRCLE
  5
4AF
  8
0
  6
BYBLOCK
 62
     0
 10
-7.858811
 20
3.91
 30
0.0
 40
0.151199
  0
CIRCLE
  5
4B0
  8
0
  6
BYBLOCK
 62
     0
 10
-8.408811
 20
3.91
 30
0.0
 40
0.151199
  0
LINE
  5
4B1
  8
0
  6
BYBLOCK
 62
     0
 10
-8.910047
 20
4.41
 30
0.0
 11
-8.910047
 21
4.120026
 31
0.0
  0
LINE
  5
4B2
  8
0
  6
BYBLOCK
 62
     0
 10
-9.080042
 20
4.41
 30
0.0
 11
-9.080042
 21
4.120026
 31
0.0
  0
LINE
  5
4B3
  8
0
  6
BYBLOCK
 62
     0
 10
-7.339976
 20
4.41
 30
0.0
 11
-7.339976
 21
4.120026
 31
0.0
  0
LINE
  5
4B4
  8
0
  6
BYBLOCK
 62
     0
 10
-11.309998
 20
4.41
 30
0.0
 11
-11.095
 21
4.41
 31
0.0
  0
LINE
  5
4B5
  8
0
  6
BYBLOCK
 62
     0
 10
-11.140002
 20
4.41
 30
0.0
 11
-11.140002
 21
4.120026
 31
0.0
  0
LINE
  5
4B8
  8
0
  6
BYBLOCK
 62
     0
 10
-11.309998
 20
4.120026
 30
0.0
 11
-8.910047
 21
4.120026
 31
0.0
  0
ARC
  5
4C5
  8
0
  6
BYBLOCK
 62
     0
 10
-8.78505
 20
1.884979
 30
0.0
 40
0.124997
 50
90.0
 51
180.0
  0
ARC
  5
4C6
  8
0
  6
BYBLOCK
 62
     0
 10
-8.78505
 20
2.294969
 30
0.0
 40
0.124997
 50
180.0
 51
270.0
  0
LINE
  5
4C7
  8
0
  6
BYBLOCK
 62
     0
 10
-7.464973
 20
2.009976
 30
0.0
 11
-8.78505
 21
2.009976
 31
0.0
  0
LINE
  5
4C8
  8
0
  6
BYBLOCK
 62
     0
 10
-7.464973
 20
2.169972
 30
0.0
 11
-8.78505
 21
2.169972
 31
0.0
  0
ARC
  5
4C9
  8
0
  6
BYBLOCK
 62
     0
 10
-11.404898
 20
1.97
 30
0.0
 40
0.2
 50
270.0
 51
90.0
  0
LINE
  5
4CA
  8
0
  6
BYBLOCK
 62
     0
 10
-11.309998
 20
2.300058
 30
0.0
 11
-8.910047
 21
2.300058
 31
0.0
  0
ARC
  5
4CB
  8
0
  6
BYBLOCK
 62
     0
 10
-11.525012
 20
2.318315
 30
0.0
 40
0.124997
 50
105.0
 51
180.0
  0
ARC
  5
4CC
  8
0
  6
BYBLOCK
 62
     0
 10
-11.525012
 20
1.621885
 30
0.0
 40
0.124997
 50
180.0
 51
255.0
  0
LINE
  5
4CD
  8
0
  6
BYBLOCK
 62
     0
 10
-11.650008
 20
2.318315
 30
0.0
 11
-11.650008
 21
1.621885
 31
0.0
  0
LINE
  5
4CE
  8
0
  6
BYBLOCK
 62
     0
 10
-11.650008
 20
1.62
 30
0.0
 11
-11.309998
 21
1.62
 31
0.0
  0
LINE
  5
4CF
  8
0
  6
BYBLOCK
 62
     0
 10
-11.557363
 20
1.501148
 30
0.0
 11
-11.309998
 21
1.35744
 31
0.0
  0
LINE
  5
4D0
  8
0
  6
BYBLOCK
 62
     0
 10
-11.530957
 20
1.879296
 30
0.0
 11
-11.314194
 21
2.09606
 31
0.0
  0
CIRCLE
  5
4D1
  8
0
  6
BYBLOCK
 62
     0
 10
-11.404898
 20
1.97
 30
0.0
 40
0.1553
  0
LINE
  5
4D2
  8
0
  6
BYBLOCK
 62
     0
 10
-11.495602
 20
1.84394
 30
0.0
 11
-11.278838
 21
2.060704
 31
0.0
  0
LINE
  5
4D3
  8
0
  6
BYBLOCK
 62
     0
 10
-11.650008
 20
2.32
 30
0.0
 11
-11.309998
 21
2.32
 31
0.0
  0
LINE
  5
4D4
  8
0
  6
BYBLOCK
 62
     0
 10
-11.557363
 20
2.439052
 30
0.0
 11
-11.309998
 21
2.58276
 31
0.0
  0
LINE
  5
4D5
  8
0
  6
BYBLOCK
 62
     0
 10
-11.650008
 20
2.17
 30
0.0
 11
-11.404898
 21
2.17
 31
0.0
  0
LINE
  5
4D6
  8
0
  6
BYBLOCK
 62
     0
 10
-11.650008
 20
1.77
 30
0.0
 11
-11.404898
 21
1.77
 31
0.0
  0
CIRCLE
  5
4D7
  8
0
  6
BYBLOCK
 62
     0
 10
-9.64
 20
3.744649
 30
0.0
 40
0.235
  0
CIRCLE
  5
4D8
  8
0
  6
BYBLOCK
 62
     0
 10
-10.58
 20
3.744649
 30
0.0
 40
0.235
  0
LINE
  5
4D9
  8
0
  6
BYBLOCK
 62
     0
 10
-11.309998
 20
4.120026
 30
0.0
 11
-11.309998
 21
2.146051
 31
0.0
  0
LINE
  5
4E4
  8
0
  6
BYBLOCK
 62
     0
 10
-7.339976
 20
2.300058
 30
0.0
 11
-4.940024
 21
2.300058
 31
0.0
  0
ARC
  5
4E5
  8
0
  6
BYBLOCK
 62
     0
 10
-7.464973
 20
2.294969
 30
0.0
 40
0.124997
 50
270.0
 51
0.0
  0
ARC
  5
4E6
  8
0
  6
BYBLOCK
 62
     0
 10
-7.464973
 20
1.884979
 30
0.0
 40
0.124997
 50
0.0
 51
90.0
  0
LINE
  5
4E8
  8
0
  6
BYBLOCK
 62
     0
 10
-9.125
 20
4.41
 30
0.0
 11
-7.125
 21
4.41
 31
0.0
  0
LINE
  5
4E9
  8
0
  6
BYBLOCK
 62
     0
 10
-7.339976
 20
4.120026
 30
0.0
 11
-4.940024
 21
4.120026
 31
0.0
  0
ARC
  5
4EF
  8
0
  6
BYBLOCK
 62
     0
 10
8.78505
 20
-1.884979
 30
0.0
 40
0.124997
 50
270.0
 51
0.0
  0
ARC
  5
4F0
  8
0
  6
BYBLOCK
 62
     0
 10
8.78505
 20
-2.294969
 30
0.0
 40
0.124997
 50
0.0
 51
90.0
  0
ARC
  5
4F1
  8
0
  6
BYBLOCK
 62
     0
 10
7.464973
 20
-1.884979
 30
0.0
 40
0.124997
 50
180.0
 51
270.0
  0
ARC
  5
4F2
  8
0
  6
BYBLOCK
 62
     0
 10
7.464973
 20
-2.294969
 30
0.0
 40
0.124997
 50
90.0
 51
180.0
  0
LINE
  5
4F3
  8
0
  6
BYBLOCK
 62
     0
 10
8.78505
 20
-2.009976
 30
0.0
 11
7.464973
 21
-2.009976
 31
0.0
  0
LINE
  5
4F4
  8
0
  6
BYBLOCK
 62
     0
 10
8.78505
 20
-2.169972
 30
0.0
 11
7.464973
 21
-2.169972
 31
0.0
  0
ARC
  5
4F5
  8
0
  6
BYBLOCK
 62
     0
 10
4.815028
 20
-1.884979
 30
0.0
 40
0.124997
 50
270.0
 51
0.0
  0
ARC
  5
4F6
  8
0
  6
BYBLOCK
 62
     0
 10
4.815028
 20
-2.294969
 30
0.0
 40
0.124997
 50
0.0
 51
90.0
  0
ARC
  5
4F7
  8
0
  6
BYBLOCK
 62
     0
 10
3.49495
 20
-1.884979
 30
0.0
 40
0.124997
 50
180.0
 51
270.0
  0
ARC
  5
4F8
  8
0
  6
BYBLOCK
 62
     0
 10
3.49495
 20
-2.294969
 30
0.0
 40
0.124997
 50
90.0
 51
180.0
  0
LINE
  5
4F9
  8
0
  6
BYBLOCK
 62
     0
 10
4.815028
 20
-2.009976
 30
0.0
 11
3.49495
 21
-2.009976
 31
0.0
  0
LINE
  5
4FA
  8
0
  6
BYBLOCK
 62
     0
 10
4.815028
 20
-2.169972
 30
0.0
 11
3.49495
 21
-2.169972
 31
0.0
  0
LINE
  5
4FB
  8
0
  6
BYBLOCK
 62
     0
 10
4.624968
 20
-3.31992
 30
0.0
 11
3.684992
 21
-3.31992
 31
0.0
  0
LINE
  5
4FC
  8
0
  6
BYBLOCK
 62
     0
 10
0.970002
 20
-2.299858
 30
0.0
 11
3.369953
 21
-2.299858
 31
0.0
  0
LINE
  5
4FD
  8
0
  6
BYBLOCK
 62
     0
 10
4.940024
 20
-2.299858
 30
0.0
 11
7.339976
 21
-2.299858
 31
0.0
  0
LINE
  5
4FE
  8
0
  6
BYBLOCK
 62
     0
 10
7.125
 20
-4.41
 30
0.0
 11
7.339976
 21
-4.41
 31
0.0
  0
LINE
  5
4FF
  8
0
  6
BYBLOCK
 62
     0
 10
7.16998
 20
-4.119826
 30
0.0
 11
7.16998
 21
-4.41
 31
0.0
  0
LINE
  5
500
  8
0
  6
BYBLOCK
 62
     0
 10
7.339976
 20
-4.119826
 30
0.0
 11
7.339976
 21
-4.41
 31
0.0
  0
LINE
  5
501
  8
0
  6
BYBLOCK
 62
     0
 10
8.910047
 20
-4.119826
 30
0.0
 11
8.910047
 21
-4.41
 31
0.0
  0
LINE
  5
502
  8
0
  6
BYBLOCK
 62
     0
 10
9.080042
 20
-4.119826
 30
0.0
 11
9.080042
 21
-4.41
 31
0.0
  0
LINE
  5
503
  8
0
  6
BYBLOCK
 62
     0
 10
5.11002
 20
-4.119826
 30
0.0
 11
5.11002
 21
-4.41
 31
0.0
  0
LINE
  5
505
  8
0
  6
BYBLOCK
 62
     0
 10
8.492277
 20
-6.0
 30
0.0
 11
8.892981
 21
-5.76
 31
0.0
  0
LINE
  5
506
  8
0
  6
BYBLOCK
 62
     0
 10
7.125
 20
-5.95
 30
0.0
 11
7.674165
 21
-5.95
 31
0.0
  0
LINE
  5
507
  8
0
  6
BYBLOCK
 62
     0
 10
7.757646
 20
-6.0
 30
0.0
 11
7.356941
 21
-5.76
 31
0.0
  0
LINE
  5
508
  8
0
  6
HIDDEN
 62
     0
 10
7.674165
 20
-5.95
 30
0.0
 11
8.575757
 21
-5.95
 31
0.0
  0
LINE
  5
509
  8
0
  6
BYBLOCK
 62
     0
 10
7.757646
 20
-6.0
 30
0.0
 11
8.492277
 21
-6.0
 31
0.0
  0
CIRCLE
  5
50A
  8
0
  6
BYBLOCK
 62
     0
 10
6.14
 20
-6.365
 30
0.0
 40
0.295
  0
LINE
  5
50C
  8
0
  6
HIDDEN
 62
     0
 10
5.155
 20
-5.95
 30
0.0
 11
7.125
 21
-5.95
 31
0.0
  0
CIRCLE
  5
50D
  8
0
  6
BYBLOCK
 62
     0
 10
6.14
 20
-5.1125
 30
0.0
 40
0.1975
  0
LINE
  5
50E
  8
0
  6
BYBLOCK
 62
     0
 10
4.624968
 20
-3.599966
 30
0.0
 11
4.531843
 21
-3.599966
 31
0.0
  0
LINE
  5
50F
  8
0
  6
BYBLOCK
 62
     0
 10
4.251925
 20
-3.599966
 30
0.0
 11
4.058035
 21
-3.599966
 31
0.0
  0
CIRCLE
  5
510
  8
0
  6
BYBLOCK
 62
     0
 10
4.391884
 20
-3.954958
 30
0.0
 40
0.139997
  0
LINE
  5
511
  8
0
  6
BYBLOCK
 62
     0
 10
3.778117
 20
-3.599966
 30
0.0
 11
3.684992
 21
-3.599966
 31
0.0
  0
CIRCLE
  5
512
  8
0
  6
BYBLOCK
 62
     0
 10
3.918076
 20
-3.954958
 30
0.0
 40
0.139997
  0
LINE
  5
513
  8
0
  6
BYBLOCK
 62
     0
 10
3.155
 20
-4.41
 30
0.0
 11
3.369953
 21
-4.41
 31
0.0
  0
LINE
  5
514
  8
0
  6
BYBLOCK
 62
     0
 10
3.199958
 20
-4.119826
 30
0.0
 11
3.199958
 21
-4.41
 31
0.0
  0
LINE
  5
515
  8
0
  6
BYBLOCK
 62
     0
 10
3.369953
 20
-4.119826
 30
0.0
 11
3.369953
 21
-4.41
 31
0.0
  0
LINE
  5
516
  8
0
  6
BYBLOCK
 62
     0
 10
4.940024
 20
-4.119826
 30
0.0
 11
4.940024
 21
-4.41
 31
0.0
  0
LINE
  5
517
  8
0
  6
BYBLOCK
 62
     0
 10
0.970002
 20
-4.41
 30
0.0
 11
1.185
 21
-4.41
 31
0.0
  0
LINE
  5
518
  8
0
  6
BYBLOCK
 62
     0
 10
1.139998
 20
-4.119826
 30
0.0
 11
1.139998
 21
-4.41
 31
0.0
  0
LINE
  5
519
  8
0
  6
BYBLOCK
 62
     0
 10
0.970002
 20
-4.119826
 30
0.0
 11
3.369953
 21
-4.119826
 31
0.0
  0
LINE
  5
51B
  8
0
  6
BYBLOCK
 62
     0
 10
4.624968
 20
-5.649915
 30
0.0
 11
4.531843
 21
-5.649915
 31
0.0
  0
LINE
  5
51C
  8
0
  6
BYBLOCK
 62
     0
 10
4.251925
 20
-5.649915
 30
0.0
 11
4.058035
 21
-5.649915
 31
0.0
  0
LINE
  5
51D
  8
0
  6
BYBLOCK
 62
     0
 10
4.522354
 20
-6.0
 30
0.0
 11
4.923059
 21
-5.76
 31
0.0
  0
CIRCLE
  5
51E
  8
0
  6
BYBLOCK
 62
     0
 10
4.391884
 20
-5.646679
 30
0.0
 40
0.139997
  0
LINE
  5
51F
  8
0
  6
BYBLOCK
 62
     0
 10
3.778117
 20
-5.649915
 30
0.0
 11
3.684992
 21
-5.649915
 31
0.0
  0
LINE
  5
520
  8
0
  6
BYBLOCK
 62
     0
 10
3.155
 20
-5.95
 30
0.0
 11
3.704243
 21
-5.95
 31
0.0
  0
LINE
  5
521
  8
0
  6
BYBLOCK
 62
     0
 10
3.787723
 20
-6.0
 30
0.0
 11
3.387019
 21
-5.76
 31
0.0
  0
LINE
  5
522
  8
0
  6
BYBLOCK
 62
     0
 10
3.787723
 20
-6.0
 30
0.0
 11
4.522354
 21
-6.0
 31
0.0
  0
LINE
  5
523
  8
0
  6
BYBLOCK
 62
     0
 10
4.624968
 20
-5.929962
 30
0.0
 11
3.684992
 21
-5.929962
 31
0.0
  0
LINE
  5
524
  8
0
  6
HIDDEN
 62
     0
 10
3.704243
 20
-5.95
 30
0.0
 11
4.605835
 21
-5.95
 31
0.0
  0
CIRCLE
  5
525
  8
0
  6
BYBLOCK
 62
     0
 10
3.918076
 20
-5.646679
 30
0.0
 40
0.139997
  0
LINE
  5
526
  8
0
  6
HIDDEN
 62
     1
 10
2.9175
 20
-5.3675
 30
0.0
 11
2.9175
 21
-5.95
 31
0.0
  0
LINE
  5
527
  8
0
  6
HIDDEN
 62
     1
 10
2.4725
 20
-5.3675
 30
0.0
 11
2.4725
 21
-5.95
 31
0.0
  0
LINE
  5
528
  8
0
  6
BYBLOCK
 62
     0
 10
1.185
 20
-5.95
 30
0.0
 11
0.970002
 21
-5.95
 31
0.0
  0
ARC
  5
529
  8
0
  6
BYBLOCK
 62
     0
 10
1.070002
 20
-5.66
 30
0.0
 40
0.1
 50
180.0
 51
270.0
  0
LINE
  5
52A
  8
0
  6
HIDDEN
 62
     0
 10
1.185
 20
-5.95
 30
0.0
 11
2.4725
 21
-5.95
 31
0.0
  0
CIRCLE
  5
52B
  8
0
  6
BYBLOCK
 62
     0
 10
2.17
 20
-6.365
 30
0.0
 40
0.295
  0
LINE
  5
52D
  8
0
  6
BYBLOCK
 62
     0
 10
3.387019
 20
-5.76
 30
0.0
 11
1.070002
 21
-5.76
 31
0.0
  0
LINE
  5
52E
  8
0
  6
HIDDEN
 62
     0
 10
2.9175
 20
-5.95
 30
0.0
 11
3.155
 21
-5.95
 31
0.0
  0
LINE
  5
52F
  8
0
  6
BYBLOCK
 62
     1
 10
2.418
 20
-5.57
 30
0.0
 11
2.972
 21
-5.57
 31
0.0
  0
CIRCLE
  5
530
  8
0
  6
BYBLOCK
 62
     0
 10
3.918076
 20
-5.294924
 30
0.0
 40
0.139997
  0
CIRCLE
  5
531
  8
0
  6
BYBLOCK
 62
     0
 10
2.17
 20
-5.1125
 30
0.0
 40
0.1975
  0
LINE
  5
532
  8
0
  6
BYBLOCK
 62
     1
 10
2.695
 20
-5.0905
 30
0.0
 11
2.695
 21
-5.939
 31
0.0
  0
LINE
  5
533
  8
0
  6
BYBLOCK
 62
     0
 10
0.970002
 20
-4.119826
 30
0.0
 11
0.970002
 21
-5.95
 31
0.0
  0
ARC
  5
534
  8
0
  6
HIDDEN
 62
     1
 10
2.695
 20
-5.3675
 30
0.0
 40
0.2225
 50
0.0
 51
180.0
  0
CIRCLE
  5
535
  8
0
  6
BYBLOCK
 62
     0
 10
4.391884
 20
-5.294924
 30
0.0
 40
0.139997
  0
LINE
  5
537
  8
0
  6
BYBLOCK
 62
     0
 10
4.923059
 20
-5.76
 30
0.0
 11
7.356941
 21
-5.76
 31
0.0
  0
LINE
  5
538
  8
0
  6
BYBLOCK
 62
     0
 10
4.605835
 20
-5.95
 30
0.0
 11
5.155
 21
-5.95
 31
0.0
  0
LINE
  5
539
  8
0
  6
BYBLOCK
 62
     0
 10
4.940024
 20
-4.119826
 30
0.0
 11
7.339976
 21
-4.119826
 31
0.0
  0
LINE
  5
53A
  8
0
  6
BYBLOCK
 62
     0
 10
4.940024
 20
-4.41
 30
0.0
 11
5.155
 21
-4.41
 31
0.0
  0
CIRCLE
  5
53B
  8
0
  6
BYBLOCK
 62
     0
 10
3.918076
 20
-3.603202
 30
0.0
 40
0.139997
  0
CIRCLE
  5
53C
  8
0
  6
BYBLOCK
 62
     0
 10
2.64
 20
-3.744649
 30
0.0
 40
0.235
  0
CIRCLE
  5
53D
  8
0
  6
BYBLOCK
 62
     0
 10
1.7
 20
-3.744649
 30
0.0
 40
0.235
  0
LINE
  5
53E
  8
0
  6
BYBLOCK
 62
     0
 10
0.970002
 20
-2.17
 30
0.0
 11
0.970002
 21
-4.119826
 31
0.0
  0
LINE
  5
53F
  8
0
  6
BYBLOCK
 62
     0
 10
3.684992
 20
-3.31992
 30
0.0
 11
3.684992
 21
-5.929962
 31
0.0
  0
CIRCLE
  5
540
  8
0
  6
BYBLOCK
 62
     0
 10
5.67
 20
-3.744649
 30
0.0
 40
0.235
  0
CIRCLE
  5
541
  8
0
  6
BYBLOCK
 62
     0
 10
6.61
 20
-3.744649
 30
0.0
 40
0.235
  0
CIRCLE
  5
542
  8
0
  6
BYBLOCK
 62
     0
 10
4.391884
 20
-3.603202
 30
0.0
 40
0.139997
  0
LINE
  5
543
  8
0
  6
BYBLOCK
 62
     0
 10
4.624968
 20
-3.31992
 30
0.0
 11
4.624968
 21
-5.929962
 31
0.0
  0
ARC
  5
544
  8
0
  6
BYBLOCK
 62
     0
 10
0.754988
 20
-1.621685
 30
0.0
 40
0.124997
 50
105.0
 51
180.0
  0
LINE
  5
545
  8
0
  6
BYBLOCK
 62
     0
 10
-0.722637
 20
-1.500948
 30
0.0
 11
-0.970002
 21
-1.35724
 31
0.0
  0
LINE
  5
546
  8
0
  6
BYBLOCK
 62
     0
 10
-0.629992
 20
-1.62
 30
0.0
 11
-0.970002
 21
-1.62
 31
0.0
  0
ARC
  5
547
  8
0
  6
BYBLOCK
 62
     0
 10
-0.754988
 20
-1.621685
 30
0.0
 40
0.124997
 50
0.0
 51
75.0
  0
LINE
  5
548
  8
0
  6
BYBLOCK
 62
     0
 10
0.629992
 20
-1.77
 30
0.0
 11
0.875102
 21
-1.77
 31
0.0
  0
LINE
  5
549
  8
0
  6
BYBLOCK
 62
     0
 10
0.629992
 20
-2.17
 30
0.0
 11
0.875102
 21
-2.17
 31
0.0
  0
ARC
  5
54A
  8
0
  6
BYBLOCK
 62
     0
 10
0.754988
 20
-2.318115
 30
0.0
 40
0.124997
 50
180.0
 51
255.0
  0
LINE
  5
54B
  8
0
  6
BYBLOCK
 62
     0
 10
-0.749043
 20
-2.060704
 30
0.0
 11
-0.965806
 21
-1.84394
 31
0.0
  0
CIRCLE
  5
54C
  8
0
  6
BYBLOCK
 62
     0
 10
-0.875102
 20
-1.97
 30
0.0
 40
0.1553
  0
LINE
  5
54D
  8
0
  6
BYBLOCK
 62
     0
 10
-0.784398
 20
-2.09606
 30
0.0
 11
-1.001162
 21
-1.879296
 31
0.0
  0
ARC
  5
54E
  8
0
  6
BYBLOCK
 62
     0
 10
-0.875102
 20
-1.97
 30
0.0
 40
0.2
 50
90.0
 51
270.0
  0
LINE
  5
54F
  8
0
  6
BYBLOCK
 62
     0
 10
-0.629992
 20
-1.77
 30
0.0
 11
-0.875102
 21
-1.77
 31
0.0
  0
LINE
  5
550
  8
0
  6
BYBLOCK
 62
     0
 10
-0.629992
 20
-2.17
 30
0.0
 11
-0.875102
 21
-2.17
 31
0.0
  0
LINE
  5
551
  8
0
  6
BYBLOCK
 62
     0
 10
-0.722637
 20
-2.438852
 30
0.0
 11
-0.970002
 21
-2.58256
 31
0.0
  0
LINE
  5
552
  8
0
  6
BYBLOCK
 62
     0
 10
-0.629992
 20
-2.32
 30
0.0
 11
-0.970002
 21
-2.32
 31
0.0
  0
ARC
  5
553
  8
0
  6
BYBLOCK
 62
     0
 10
-0.754988
 20
-2.318115
 30
0.0
 40
0.124997
 50
285.0
 51
0.0
  0
LINE
  5
554
  8
0
  6
BYBLOCK
 62
     0
 10
-0.629992
 20
-1.621685
 30
0.0
 11
-0.629992
 21
-2.318115
 31
0.0
  0
LINE
  5
555
  8
0
  6
BYBLOCK
 62
     0
 10
0.629992
 20
-1.621685
 30
0.0
 11
0.629992
 21
-2.318115
 31
0.0
  0
ARC
  5
556
  8
0
  6
BYBLOCK
 62
     0
 10
-3.49495
 20
-1.884979
 30
0.0
 40
0.124997
 50
270.0
 51
0.0
  0
ARC
  5
557
  8
0
  6
BYBLOCK
 62
     0
 10
-3.49495
 20
-2.294969
 30
0.0
 40
0.124997
 50
0.0
 51
90.0
  0
ARC
  5
558
  8
0
  6
BYBLOCK
 62
     0
 10
-4.815028
 20
-1.884979
 30
0.0
 40
0.124997
 50
180.0
 51
270.0
  0
ARC
  5
559
  8
0
  6
BYBLOCK
 62
     0
 10
-4.815027
 20
-2.294969
 30
0.0
 40
0.124997
 50
90.0
 51
180.0
  0
LINE
  5
55A
  8
0
  6
BYBLOCK
 62
     0
 10
-3.49495
 20
-2.009976
 30
0.0
 11
-4.815028
 21
-2.009976
 31
0.0
  0
LINE
  5
55B
  8
0
  6
BYBLOCK
 62
     0
 10
-3.49495
 20
-2.169972
 30
0.0
 11
-4.815027
 21
-2.169972
 31
0.0
  0
LINE
  5
55C
  8
0
  6
BYBLOCK
 62
     0
 10
-3.369953
 20
-2.299858
 30
0.0
 11
-0.970002
 21
-2.299858
 31
0.0
  0
LINE
  5
55D
  8
0
  6
BYBLOCK
 62
     0
 10
-1.139998
 20
-4.119826
 30
0.0
 11
-1.139998
 21
-4.41
 31
0.0
  0
LINE
  5
55F
  8
0
  6
BYBLOCK
 62
     0
 10
-3.199958
 20
-4.119826
 30
0.0
 11
-3.199958
 21
-4.41
 31
0.0
  0
LINE
  5
560
  8
0
  6
BYBLOCK
 62
     0
 10
-1.185
 20
-4.41
 30
0.0
 11
-0.970002
 21
-4.41
 31
0.0
  0
LINE
  5
574
  8
0
  6
BYBLOCK
 62
     0
 10
-5.155
 20
-4.41
 30
0.0
 11
-4.940024
 21
-4.41
 31
0.0
  0
LINE
  5
575
  8
0
  6
BYBLOCK
 62
     0
 10
-5.11002
 20
-4.119826
 30
0.0
 11
-5.11002
 21
-4.41
 31
0.0
  0
LINE
  5
576
  8
0
  6
BYBLOCK
 62
     0
 10
-4.940024
 20
-4.119826
 30
0.0
 11
-4.940024
 21
-4.41
 31
0.0
  0
LINE
  5
577
  8
0
  6
BYBLOCK
 62
     0
 10
-3.369953
 20
-4.119826
 30
0.0
 11
-3.369953
 21
-4.41
 31
0.0
  0
LINE
  5
578
  8
0
  6
BYBLOCK
 62
     0
 10
-7.16998
 20
-4.119826
 30
0.0
 11
-7.16998
 21
-4.41
 31
0.0
  0
LINE
  5
588
  8
0
  6
BYBLOCK
 62
     0
 10
-3.369953
 20
-4.119826
 30
0.0
 11
-0.970002
 21
-4.119826
 31
0.0
  0
LINE
  5
58A
  8
0
  6
BYBLOCK
 62
     0
 10
-3.369953
 20
-4.41
 30
0.0
 11
-3.155
 21
-4.41
 31
0.0
  0
CIRCLE
  5
58B
  8
0
  6
BYBLOCK
 62
     0
 10
-5.67
 20
-3.744649
 30
0.0
 40
0.235
  0
CIRCLE
  5
58C
  8
0
  6
BYBLOCK
 62
     0
 10
-6.61
 20
-3.744649
 30
0.0
 40
0.235
  0
LINE
  5
58D
  8
0
  6
BYBLOCK
 62
     0
 10
-0.970002
 20
-2.146051
 30
0.0
 11
-0.970002
 21
-4.119826
 31
0.0
  0
CIRCLE
  5
58E
  8
0
  6
BYBLOCK
 62
     0
 10
-2.64
 20
-3.744649
 30
0.0
 40
0.235
  0
CIRCLE
  5
58F
  8
0
  6
BYBLOCK
 62
     0
 10
-1.7
 20
-3.744649
 30
0.0
 40
0.235
  0
CIRCLE
  5
591
  8
0
  6
BYBLOCK
 62
     0
 10
0.875102
 20
-1.97
 30
0.0
 40
0.1553
  0
LINE
  5
592
  8
0
  6
BYBLOCK
 62
     0
 10
0.784398
 20
-2.09606
 30
0.0
 11
1.001162
 21
-1.879296
 31
0.0
  0
ARC
  5
593
  8
0
  6
BYBLOCK
 62
     0
 10
0.875102
 20
-1.97
 30
0.0
 40
0.2
 50
270.0
 51
90.0
  0
LINE
  5
594
  8
0
  6
BYBLOCK
 62
     0
 10
0.629992
 20
-2.32
 30
0.0
 11
0.970002
 21
-2.32
 31
0.0
  0
LINE
  5
595
  8
0
  6
BYBLOCK
 62
     0
 10
0.722637
 20
-2.438852
 30
0.0
 11
0.970002
 21
-2.58256
 31
0.0
  0
LINE
  5
596
  8
0
  6
BYBLOCK
 62
     0
 10
0.749043
 20
-2.060704
 30
0.0
 11
0.965806
 21
-1.84394
 31
0.0
  0
LINE
  5
597
  8
0
  6
BYBLOCK
 62
     0
 10
0.629992
 20
-1.62
 30
0.0
 11
0.970002
 21
-1.62
 31
0.0
  0
LINE
  5
598
  8
0
  6
BYBLOCK
 62
     0
 10
0.722637
 20
-1.500948
 30
0.0
 11
0.970002
 21
-1.35724
 31
0.0
  0
LINE
  5
599
  8
0
  6
BYBLOCK
 62
     0
 10
0.970002
 20
-3.508687
 30
0.0
 11
-0.970002
 21
-3.508687
 31
0.0
  0
LINE
  5
59A
  8
0
  6
BYBLOCK
 62
     0
 10
5.155
 20
-7.08
 30
0.0
 11
7.125
 21
-7.08
 31
0.0
  0
LINE
  5
59B
  8
0
  6
BYBLOCK
 62
     0
 10
1.185
 20
-7.08
 30
0.0
 11
3.155
 21
-7.08
 31
0.0
  0
LINE
  5
5BC
  8
0
  6
BYBLOCK
 62
     0
 10
7.125
 20
-4.119826
 30
0.0
 11
7.125
 21
-7.08
 31
0.0
  0
LINE
  5
5BD
  8
0
  6
BYBLOCK
 62
     0
 10
5.155
 20
-4.119826
 30
0.0
 11
5.155
 21
-7.08
 31
0.0
  0
LINE
  5
5BE
  8
0
  6
BYBLOCK
 62
     0
 10
3.155
 20
-4.119826
 30
0.0
 11
3.155
 21
-7.08
 31
0.0
  0
LINE
  5
5BF
  8
0
  6
BYBLOCK
 62
     0
 10
1.185
 20
-4.119826
 30
0.0
 11
1.185
 21
-7.08
 31
0.0
  0
ARC
  5
5C4
  8
0
  6
BYBLOCK
 62
     0
 10
-8.78505
 20
-1.884979
 30
0.0
 40
0.124997
 50
180.0
 51
270.0
  0
ARC
  5
5C5
  8
0
  6
BYBLOCK
 62
     0
 10
-8.78505
 20
-2.294969
 30
0.0
 40
0.124997
 50
90.0
 51
180.0
  0
LINE
  5
5C6
  8
0
  6
BYBLOCK
 62
     0
 10
-7.464973
 20
-2.009976
 30
0.0
 11
-8.78505
 21
-2.009976
 31
0.0
  0
LINE
  5
5C7
  8
0
  6
BYBLOCK
 62
     0
 10
-7.464973
 20
-2.169972
 30
0.0
 11
-8.78505
 21
-2.169972
 31
0.0
  0
ARC
  5
5C9
  8
0
  6
BYBLOCK
 62
     0
 10
-11.404898
 20
-1.97
 30
0.0
 40
0.2
 50
270.0
 51
90.0
  0
LINE
  5
5CA
  8
0
  6
BYBLOCK
 62
     0
 10
-11.309998
 20
-2.299858
 30
0.0
 11
-8.910047
 21
-2.299858
 31
0.0
  0
ARC
  5
5CB
  8
0
  6
BYBLOCK
 62
     0
 10
-11.525012
 20
-1.621685
 30
0.0
 40
0.124997
 50
105.0
 51
180.0
  0
ARC
  5
5CC
  8
0
  6
BYBLOCK
 62
     0
 10
-11.525012
 20
-2.318115
 30
0.0
 40
0.124997
 50
180.0
 51
255.0
  0
LINE
  5
5CD
  8
0
  6
BYBLOCK
 62
     0
 10
-11.650008
 20
-1.621685
 30
0.0
 11
-11.650008
 21
-2.318115
 31
0.0
  0
CIRCLE
  5
5CE
  8
0
  6
BYBLOCK
 62
     0
 10
-11.404898
 20
-1.97
 30
0.0
 40
0.1553
  0
LINE
  5
5CF
  8
0
  6
BYBLOCK
 62
     0
 10
-11.495602
 20
-2.09606
 30
0.0
 11
-11.278838
 21
-1.879296
 31
0.0
  0
LINE
  5
5D0
  8
0
  6
BYBLOCK
 62
     0
 10
-11.530957
 20
-2.060704
 30
0.0
 11
-11.314194
 21
-1.84394
 31
0.0
  0
LINE
  5
5D1
  8
0
  6
BYBLOCK
 62
     0
 10
-11.650008
 20
-2.32
 30
0.0
 11
-11.309998
 21
-2.32
 31
0.0
  0
LINE
  5
5D2
  8
0
  6
BYBLOCK
 62
     0
 10
-11.557363
 20
-2.438852
 30
0.0
 11
-11.309998
 21
-2.58256
 31
0.0
  0
LINE
  5
5D3
  8
0
  6
BYBLOCK
 62
     0
 10
-11.650008
 20
-1.77
 30
0.0
 11
-11.404898
 21
-1.77
 31
0.0
  0
LINE
  5
5D4
  8
0
  6
BYBLOCK
 62
     0
 10
-11.650008
 20
-2.17
 30
0.0
 11
-11.404898
 21
-2.17
 31
0.0
  0
LINE
  5
5D5
  8
0
  6
BYBLOCK
 62
     0
 10
-11.650008
 20
-1.62
 30
0.0
 11
-11.309998
 21
-1.62
 31
0.0
  0
LINE
  5
5D6
  8
0
  6
BYBLOCK
 62
     0
 10
-11.557363
 20
-1.500948
 30
0.0
 11
-11.309998
 21
-1.35724
 31
0.0
  0
LINE
  5
5DC
  8
0
  6
BYBLOCK
 62
     0
 10
-9.125
 20
-4.41
 30
0.0
 11
-8.910047
 21
-4.41
 31
0.0
  0
LINE
  5
5DD
  8
0
  6
BYBLOCK
 62
     0
 10
-9.080042
 20
-4.119826
 30
0.0
 11
-9.080042
 21
-4.41
 31
0.0
  0
LINE
  5
5DE
  8
0
  6
BYBLOCK
 62
     0
 10
-8.910047
 20
-4.119826
 30
0.0
 11
-8.910047
 21
-4.41
 31
0.0
  0
LINE
  5
5DF
  8
0
  6
BYBLOCK
 62
     0
 10
-7.339976
 20
-4.119826
 30
0.0
 11
-7.339976
 21
-4.41
 31
0.0
  0
LINE
  5
5E0
  8
0
  6
BYBLOCK
 62
     0
 10
-11.309998
 20
-4.41
 30
0.0
 11
-11.095
 21
-4.41
 31
0.0
  0
LINE
  5
5E1
  8
0
  6
BYBLOCK
 62
     0
 10
-11.140002
 20
-4.119826
 30
0.0
 11
-11.140002
 21
-4.41
 31
0.0
  0
LINE
  5
5E2
  8
0
  6
BYBLOCK
 62
     0
 10
-11.309998
 20
-4.119826
 30
0.0
 11
-8.910047
 21
-4.119826
 31
0.0
  0
CIRCLE
  5
609
  8
0
  6
BYBLOCK
 62
     0
 10
-9.64
 20
-3.744649
 30
0.0
 40
0.235
  0
LINE
  5
60C
  8
0
  6
BYBLOCK
 62
     0
 10
-11.309998
 20
-2.17
 30
0.0
 11
-11.309998
 21
-4.119826
 31
0.0
  0
CIRCLE
  5
60D
  8
0
  6
BYBLOCK
 62
     0
 10
-10.58
 20
-3.744649
 30
0.0
 40
0.235
  0
LINE
  5
629
  8
0
  6
BYBLOCK
 62
     0
 10
-7.339976
 20
-4.119826
 30
0.0
 11
-4.940024
 21
-4.119826
 31
0.0
  0
LINE
  5
62B
  8
0
  6
BYBLOCK
 62
     0
 10
-7.339976
 20
-4.41
 30
0.0
 11
-7.125
 21
-4.41
 31
0.0
  0
LINE
  5
62C
  8
0
  6
BYBLOCK
 62
     0
 10
-7.339976
 20
-2.299858
 30
0.0
 11
-4.940024
 21
-2.299858
 31
0.0
  0
ARC
  5
62D
  8
0
  6
BYBLOCK
 62
     0
 10
-7.464973
 20
-2.294969
 30
0.0
 40
0.124997
 50
0.0
 51
90.0
  0
ARC
  5
62E
  8
0
  6
BYBLOCK
 62
     0
 10
-7.464973
 20
-1.884979
 30
0.0
 40
0.124997
 50
270.0
 51
0.0
  0
LINE
  5
62F
  8
0
  6
BYBLOCK
 62
     0
 10
8.910047
 20
4.120026
 30
0.0
 11
8.910047
 21
-4.119826
 31
0.0
  0
LINE
  5
630
  8
0
  6
BYBLOCK
 62
     0
 10
7.339976
 20
4.120026
 30
0.0
 11
7.339976
 21
-4.119826
 31
0.0
  0
LINE
  5
631
  8
0
  6
BYBLOCK
 62
     0
 10
4.940024
 20
4.120026
 30
0.0
 11
4.940024
 21
-4.119826
 31
0.0
  0
LINE
  5
632
  8
0
  6
BYBLOCK
 62
     0
 10
3.369953
 20
4.120026
 30
0.0
 11
3.369953
 21
-4.119826
 31
0.0
  0
LINE
  5
633
  8
0
  6
BYBLOCK
 62
     0
 10
0.970002
 20
1.793949
 30
0.0
 11
0.970002
 21
-1.77
 31
0.0
  0
LINE
  5
634
  8
0
  6
BYBLOCK
 62
     0
 10
-4.940024
 20
4.120026
 30
0.0
 11
-4.940024
 21
-4.119826
 31
0.0
  0
LINE
  5
635
  8
0
  6
BYBLOCK
 62
     0
 10
-7.339976
 20
4.120026
 30
0.0
 11
-7.339976
 21
-4.119826
 31
0.0
  0
LINE
  5
636
  8
0
  6
BYBLOCK
 62
     0
 10
-8.910047
 20
4.120026
 30
0.0
 11
-8.910047
 21
-4.119826
 31
0.0
  0
LINE
  5
637
  8
0
  6
BYBLOCK
 62
     0
 10
-3.369953
 20
4.120026
 30
0.0
 11
-3.369953
 21
-4.119826
 31
0.0
  0
LINE
  5
638
  8
0
  6
BYBLOCK
 62
     0
 10
-0.970002
 20
1.793949
 30
0.0
 11
-0.970002
 21
-1.793949
 31
0.0
  0
LINE
  5
639
  8
0
  6
BYBLOCK
 62
     0
 10
-11.309998
 20
1.793949
 30
0.0
 11
-11.309998
 21
-1.77
 31
0.0
  0
LINE
  5
63F
  8
0
  6
BYBLOCK
 62
     0
 10
8.575757
 20
-5.95
 30
0.0
 11
9.125
 21
-5.95
 31
0.0
  0
LINE
  5
640
  8
0
  6
BYBLOCK
 62
     0
 10
8.892981
 20
-5.76
 30
0.0
 11
9.125
 21
-5.76
 31
0.0
  0
LINE
  5
641
  8
0
  6
BYBLOCK
 62
     0
 10
8.910047
 20
-4.119826
 30
0.0
 11
11.309998
 21
-4.119826
 31
0.0
  0
LINE
  5
642
  8
0
  6
BYBLOCK
 62
     0
 10
8.910047
 20
-4.41
 30
0.0
 11
9.125
 21
-4.41
 31
0.0
  0
LINE
  5
643
  8
0
  6
BYBLOCK
 62
     0
 10
8.910047
 20
-2.299858
 30
0.0
 11
11.309998
 21
-2.299858
 31
0.0
  0
LINE
  5
644
  8
0
  6
BYBLOCK
 62
     0
 10
8.910047
 20
2.300058
 30
0.0
 11
11.309998
 21
2.300058
 31
0.0
  0
LINE
  5
646
  8
0
  6
BYBLOCK
 62
     0
 10
6.935
 20
5.95
 30
0.0
 11
9.125
 21
5.95
 31
0.0
  0
LINE
  5
647
  8
0
  6
BYBLOCK
 62
     0
 10
7.125
 20
4.41
 30
0.0
 11
9.125
 21
4.41
 31
0.0
  0
LINE
  5
648
  8
0
  6
BYBLOCK
 62
     0
 10
8.910047
 20
4.120026
 30
0.0
 11
11.309998
 21
4.120026
 31
0.0
  0
LINE
  5
6A5
  8
0
  6
HIDDEN
 62
     0
 10
-7.125
 20
4.68
 30
0.0
 11
-5.155
 21
4.68
 31
0.0
  0
LINE
  5
6A6
  8
0
  6
HIDDEN
 62
     0
 10
-5.345
 20
5.95
 30
0.0
 11
-5.46047
 21
6.1
 31
0.0
  0
LINE
  5
6A7
  8
0
  6
BYBLOCK
 62
     0
 10
-7.125
 20
7.08
 30
0.0
 11
-5.155
 21
7.08
 31
0.0
  0
LINE
  5
6A8
  8
0
  6
BYBLOCK
 62
     0
 10
-9.125
 20
7.08
 30
0.0
 11
-9.125
 21
4.120026
 31
0.0
  0
LINE
  5
6A9
  8
0
  6
BYBLOCK
 62
     0
 10
-11.095
 20
7.08
 30
0.0
 11
-11.095
 21
4.120026
 31
0.0
  0
LINE
  5
6AA
  8
0
  6
BYBLOCK
 62
     0
 10
-7.125
 20
7.08
 30
0.0
 11
-7.125
 21
4.120026
 31
0.0
  0
CIRCLE
  5
6AB
  8
0
  6
BYBLOCK
 62
     0
 10
-10.11
 20
6.365
 30
0.0
 40
0.295
  0
CIRCLE
  5
6AC
  8
0
  6
BYBLOCK
 62
     0
 10
-6.14
 20
6.365
 30
0.0
 40
0.295
  0
LINE
  5
6AD
  8
0
  6
BYBLOCK
 62
     0
 10
-9.125
 20
5.95
 30
0.0
 11
-6.935
 21
5.95
 31
0.0
  0
LINE
  5
6AE
  8
0
  6
HIDDEN
 62
     0
 10
-11.095
 20
4.68
 30
0.0
 11
-9.125
 21
4.68
 31
0.0
  0
CIRCLE
  5
6AF
  8
0
  6
BYBLOCK
 62
     0
 10
-10.11
 20
5.1125
 30
0.0
 40
0.1975
  0
LINE
  5
6B0
  8
0
  6
BYBLOCK
 62
     0
 10
-11.309998
 20
5.85
 30
0.0
 11
-11.309998
 21
4.120026
 31
0.0
  0
LINE
  5
6B1
  8
0
  6
BYBLOCK
 62
     0
 10
-11.209998
 20
5.95
 30
0.0
 11
-11.095
 21
5.95
 31
0.0
  0
ARC
  5
6B2
  8
0
  6
BYBLOCK
 62
     0
 10
-11.209998
 20
5.85
 30
0.0
 40
0.1
 50
90.0
 51
180.0
  0
CIRCLE
  5
6B3
  8
0
  6
HIDDEN
 62
     1
 10
-9.585
 20
5.45
 30
0.0
 40
0.215
  0
LINE
  5
6B4
  8
0
  6
BYBLOCK
 62
     1
 10
-9.585
 20
5.727
 30
0.0
 11
-9.585
 21
5.173
 31
0.0
  0
LINE
  5
6B5
  8
0
  6
BYBLOCK
 62
     1
 10
-9.862
 20
5.45
 30
0.0
 11
-9.308
 21
5.45
 31
0.0
  0
LINE
  5
6B6
  8
0
  6
HIDDEN
 62
     0
 10
-6.935
 20
5.95
 30
0.0
 11
-6.81953
 21
6.1
 31
0.0
  0
CIRCLE
  5
6B7
  8
0
  6
BYBLOCK
 62
     0
 10
-6.14
 20
5.1125
 30
0.0
 40
0.1975
  0
LINE
  5
6B8
  8
0
  6
HIDDEN
 62
     0
 10
-5.46047
 20
6.1
 30
0.0
 11
-6.81953
 21
6.1
 31
0.0
  0
LINE
  5
6B9
  8
0
  6
BYBLOCK
 62
     0
 10
-11.095
 20
7.08
 30
0.0
 11
-9.125
 21
7.08
 31
0.0
  0
LINE
  5
6BA
  8
0
  6
BYBLOCK
 62
     0
 10
-5.155
 20
7.08
 30
0.0
 11
-5.155
 21
4.120026
 31
0.0
  0
LINE
  5
6BB
  8
0
  6
BYBLOCK
 62
     0
 10
-3.155
 20
7.08
 30
0.0
 11
-3.155
 21
4.120026
 31
0.0
  0
LINE
  5
6BC
  8
0
  6
BYBLOCK
 62
     0
 10
-1.185
 20
7.08
 30
0.0
 11
-1.185
 21
4.120026
 31
0.0
  0
CIRCLE
  5
6BD
  8
0
  6
BYBLOCK
 62
     0
 10
-2.17
 20
6.365
 30
0.0
 40
0.295
  0
LINE
  5
6BE
  8
0
  6
HIDDEN
 62
     0
 10
-3.155
 20
4.68
 30
0.0
 11
-1.185
 21
4.68
 31
0.0
  0
LINE
  5
6BF
  8
0
  6
BYBLOCK
 62
     1
 10
-2.972
 20
5.45
 30
0.0
 11
-2.418
 21
5.45
 31
0.0
  0
LINE
  5
6C0
  8
0
  6
BYBLOCK
 62
     0
 10
-5.345
 20
5.95
 30
0.0
 11
-3.155
 21
5.95
 31
0.0
  0
CIRCLE
  5
6C1
  8
0
  6
HIDDEN
 62
     1
 10
-2.695
 20
5.45
 30
0.0
 40
0.215
  0
LINE
  5
6C2
  8
0
  6
BYBLOCK
 62
     1
 10
-2.695
 20
5.727
 30
0.0
 11
-2.695
 21
5.173
 31
0.0
  0
LINE
  5
6C3
  8
0
  6
BYBLOCK
 62
     0
 10
-0.970002
 20
5.85
 30
0.0
 11
-0.970002
 21
2.146051
 31
0.0
  0
ARC
  5
6C4
  8
0
  6
BYBLOCK
 62
     0
 10
-1.070002
 20
5.85
 30
0.0
 40
0.1
 50
360.0
 51
90.0
  0
CIRCLE
  5
6C5
  8
0
  6
BYBLOCK
 62
     0
 10
-2.17
 20
5.1125
 30
0.0
 40
0.1975
  0
LINE
  5
6C6
  8
0
  6
BYBLOCK
 62
     0
 10
-1.185
 20
5.95
 30
0.0
 11
-1.070002
 21
5.95
 31
0.0
  0
LINE
  5
6C7
  8
0
  6
BYBLOCK
 62
     0
 10
-3.155
 20
7.08
 30
0.0
 11
-1.185
 21
7.08
 31
0.0
  0
LINE
  5
6C8
  8
0
  6
BYBLOCK
 62
     0
 10
-7.125
 20
-7.08
 30
0.0
 11
-5.155
 21
-7.08
 31
0.0
  0
LINE
  5
6C9
  8
0
  6
BYBLOCK
 62
     0
 10
-7.356941
 20
-5.76
 30
0.0
 11
-4.923059
 21
-5.76
 31
0.0
  0
LINE
  5
6CA
  8
0
  6
HIDDEN
 62
     0
 10
-7.125
 20
-5.95
 30
0.0
 11
-5.155
 21
-5.95
 31
0.0
  0
LINE
  5
6CB
  8
0
  6
BYBLOCK
 62
     0
 10
-11.095
 20
-4.119826
 30
0.0
 11
-11.095
 21
-7.08
 31
0.0
  0
LINE
  5
6CC
  8
0
  6
BYBLOCK
 62
     0
 10
-9.125
 20
-4.119826
 30
0.0
 11
-9.125
 21
-7.08
 31
0.0
  0
LINE
  5
6CD
  8
0
  6
BYBLOCK
 62
     0
 10
-7.125
 20
-4.119826
 30
0.0
 11
-7.125
 21
-7.08
 31
0.0
  0
LINE
  5
6CE
  8
0
  6
BYBLOCK
 62
     0
 10
-11.095
 20
-7.08
 30
0.0
 11
-9.125
 21
-7.08
 31
0.0
  0
CIRCLE
  5
6CF
  8
0
  6
BYBLOCK
 62
     0
 10
-8.361924
 20
-5.294924
 30
0.0
 40
0.139997
  0
CIRCLE
  5
6D0
  8
0
  6
BYBLOCK
 62
     0
 10
-8.361924
 20
-5.646679
 30
0.0
 40
0.139997
  0
LINE
  5
6D1
  8
0
  6
HIDDEN
 62
     0
 10
-8.575757
 20
-5.95
 30
0.0
 11
-7.674165
 21
-5.95
 31
0.0
  0
LINE
  5
6D2
  8
0
  6
BYBLOCK
 62
     0
 10
-7.655032
 20
-5.929962
 30
0.0
 11
-8.595008
 21
-5.929962
 31
0.0
  0
LINE
  5
6D3
  8
0
  6
BYBLOCK
 62
     0
 10
-8.492277
 20
-6.0
 30
0.0
 11
-7.757646
 21
-6.0
 31
0.0
  0
LINE
  5
6D4
  8
0
  6
BYBLOCK
 62
     0
 10
-8.595008
 20
-3.31992
 30
0.0
 11
-8.595008
 21
-5.929962
 31
0.0
  0
LINE
  5
6D5
  8
0
  6
BYBLOCK
 62
     0
 10
-11.309998
 20
-4.119826
 30
0.0
 11
-11.309998
 21
-5.95
 31
0.0
  0
LINE
  5
6D6
  8
0
  6
BYBLOCK
 62
     0
 10
-8.892981
 20
-5.76
 30
0.0
 11
-11.209998
 21
-5.76
 31
0.0
  0
CIRCLE
  5
6D7
  8
0
  6
BYBLOCK
 62
     0
 10
-10.11
 20
-6.365
 30
0.0
 40
0.295
  0
LINE
  5
6D8
  8
0
  6
HIDDEN
 62
     0
 10
-11.095
 20
-5.95
 30
0.0
 11
-9.8075
 21
-5.95
 31
0.0
  0
ARC
  5
6D9
  8
0
  6
BYBLOCK
 62
     0
 10
-11.209998
 20
-5.66
 30
0.0
 40
0.1
 50
180.0
 51
270.0
  0
LINE
  5
6DA
  8
0
  6
BYBLOCK
 62
     0
 10
-11.095
 20
-5.95
 30
0.0
 11
-11.309998
 21
-5.95
 31
0.0
  0
CIRCLE
  5
6DB
  8
0
  6
BYBLOCK
 62
     0
 10
-10.11
 20
-5.1125
 30
0.0
 40
0.1975
  0
LINE
  5
6DC
  8
0
  6
BYBLOCK
 62
     1
 10
-9.585
 20
-5.0905
 30
0.0
 11
-9.585
 21
-5.939
 31
0.0
  0
LINE
  5
6DD
  8
0
  6
HIDDEN
 62
     0
 10
-9.8075
 20
-5.3675
 30
0.0
 11
-9.8075
 21
-5.95
 31
0.0
  0
LINE
  5
6DE
  8
0
  6
HIDDEN
 62
     1
 10
-9.3625
 20
-5.3675
 30
0.0
 11
-9.3625
 21
-5.95
 31
0.0
  0
LINE
  5
6DF
  8
0
  6
HIDDEN
 62
     0
 10
-9.3625
 20
-5.95
 30
0.0
 11
-9.125
 21
-5.95
 31
0.0
  0
LINE
  5
6E0
  8
0
  6
BYBLOCK
 62
     0
 10
-8.492277
 20
-6.0
 30
0.0
 11
-8.892981
 21
-5.76
 31
0.0
  0
LINE
  5
6E1
  8
0
  6
BYBLOCK
 62
     0
 10
-9.125
 20
-5.95
 30
0.0
 11
-8.575757
 21
-5.95
 31
0.0
  0
ARC
  5
6E2
  8
0
  6
HIDDEN
 62
     1
 10
-9.585
 20
-5.3675
 30
0.0
 40
0.2225
 50
0.0
 51
180.0
  0
LINE
  5
6E3
  8
0
  6
BYBLOCK
 62
     1
 10
-9.862
 20
-5.57
 30
0.0
 11
-9.308
 21
-5.57
 31
0.0
  0
LINE
  5
6E4
  8
0
  6
BYBLOCK
 62
     0
 10
-8.501883
 20
-5.649915
 30
0.0
 11
-8.595008
 21
-5.649915
 31
0.0
  0
LINE
  5
6E5
  8
0
  6
BYBLOCK
 62
     0
 10
-7.655032
 20
-3.31992
 30
0.0
 11
-7.655032
 21
-5.929962
 31
0.0
  0
CIRCLE
  5
6E6
  8
0
  6
BYBLOCK
 62
     0
 10
-7.888116
 20
-5.646679
 30
0.0
 40
0.139997
  0
LINE
  5
6E7
  8
0
  6
BYBLOCK
 62
     0
 10
-7.674165
 20
-5.95
 30
0.0
 11
-7.125
 21
-5.95
 31
0.0
  0
LINE
  5
6E8
  8
0
  6
BYBLOCK
 62
     0
 10
-7.757646
 20
-6.0
 30
0.0
 11
-7.356941
 21
-5.76
 31
0.0
  0
LINE
  5
6E9
  8
0
  6
BYBLOCK
 62
     0
 10
-7.655032
 20
-5.649915
 30
0.0
 11
-7.748157
 21
-5.649915
 31
0.0
  0
CIRCLE
  5
6EA
  8
0
  6
BYBLOCK
 62
     0
 10
-7.888116
 20
-5.294924
 30
0.0
 40
0.139997
  0
LINE
  5
6EB
  8
0
  6
BYBLOCK
 62
     0
 10
-8.028075
 20
-5.649915
 30
0.0
 11
-8.221965
 21
-5.649915
 31
0.0
  0
CIRCLE
  5
6EC
  8
0
  6
BYBLOCK
 62
     0
 10
-6.14
 20
-6.365
 30
0.0
 40
0.295
  0
CIRCLE
  5
6ED
  8
0
  6
BYBLOCK
 62
     0
 10
-6.14
 20
-5.1125
 30
0.0
 40
0.1975
  0
LINE
  5
6EE
  8
0
  6
BYBLOCK
 62
     0
 10
-5.155
 20
-4.119826
 30
0.0
 11
-5.155
 21
-7.08
 31
0.0
  0
LINE
  5
6EF
  8
0
  6
BYBLOCK
 62
     0
 10
-3.155
 20
-4.119826
 30
0.0
 11
-3.155
 21
-7.08
 31
0.0
  0
LINE
  5
6F0
  8
0
  6
BYBLOCK
 62
     0
 10
-1.185
 20
-4.119826
 30
0.0
 11
-1.185
 21
-7.08
 31
0.0
  0
LINE
  5
6F1
  8
0
  6
BYBLOCK
 62
     0
 10
-3.155
 20
-7.08
 30
0.0
 11
-1.185
 21
-7.08
 31
0.0
  0
CIRCLE
  5
6F2
  8
0
  6
BYBLOCK
 62
     0
 10
-2.17
 20
-6.365
 30
0.0
 40
0.295
  0
LINE
  5
6F3
  8
0
  6
HIDDEN
 62
     0
 10
-2.4725
 20
-5.95
 30
0.0
 11
-1.185
 21
-5.95
 31
0.0
  0
LINE
  5
6F4
  8
0
  6
BYBLOCK
 62
     1
 10
-2.972
 20
-5.57
 30
0.0
 11
-2.418
 21
-5.57
 31
0.0
  0
LINE
  5
6F5
  8
0
  6
BYBLOCK
 62
     0
 10
-4.522354
 20
-6.0
 30
0.0
 11
-3.787723
 21
-6.0
 31
0.0
  0
LINE
  5
6F6
  8
0
  6
HIDDEN
 62
     0
 10
-4.605835
 20
-5.95
 30
0.0
 11
-3.704243
 21
-5.95
 31
0.0
  0
LINE
  5
6F7
  8
0
  6
BYBLOCK
 62
     0
 10
-4.522354
 20
-6.0
 30
0.0
 11
-4.923059
 21
-5.76
 31
0.0
  0
LINE
  5
6F8
  8
0
  6
BYBLOCK
 62
     0
 10
-5.155
 20
-5.95
 30
0.0
 11
-4.605835
 21
-5.95
 31
0.0
  0
LINE
  5
6F9
  8
0
  6
BYBLOCK
 62
     1
 10
-2.695
 20
-5.0905
 30
0.0
 11
-2.695
 21
-5.939
 31
0.0
  0
LINE
  5
6FA
  8
0
  6
HIDDEN
 62
     1
 10
-2.9175
 20
-5.3675
 30
0.0
 11
-2.9175
 21
-5.95
 31
0.0
  0
LINE
  5
6FB
  8
0
  6
HIDDEN
 62
     1
 10
-2.4725
 20
-5.3675
 30
0.0
 11
-2.4725
 21
-5.95
 31
0.0
  0
LINE
  5
6FC
  8
0
  6
BYBLOCK
 62
     0
 10
-3.387019
 20
-5.76
 30
0.0
 11
-3.155
 21
-5.76
 31
0.0
  0
LINE
  5
6FD
  8
0
  6
BYBLOCK
 62
     0
 10
-3.704243
 20
-5.95
 30
0.0
 11
-3.155
 21
-5.95
 31
0.0
  0
LINE
  5
6FE
  8
0
  6
BYBLOCK
 62
     0
 10
-3.787723
 20
-6.0
 30
0.0
 11
-3.387019
 21
-5.76
 31
0.0
  0
LINE
  5
6FF
  8
0
  6
HIDDEN
 62
     0
 10
-3.155
 20
-5.95
 30
0.0
 11
-2.9175
 21
-5.95
 31
0.0
  0
ARC
  5
700
  8
0
  6
HIDDEN
 62
     1
 10
-2.695
 20
-5.3675
 30
0.0
 40
0.2225
 50
0.0
 51
180.0
  0
LINE
  5
701
  8
0
  6
BYBLOCK
 62
     0
 10
-0.970002
 20
-4.119826
 30
0.0
 11
-0.970002
 21
-5.95
 31
0.0
  0
ARC
  5
702
  8
0
  6
BYBLOCK
 62
     0
 10
-1.070002
 20
-5.66
 30
0.0
 40
0.1
 50
270.0
 51
0.0
  0
LINE
  5
703
  8
0
  6
BYBLOCK
 62
     0
 10
-1.1499
 20
-5.95
 30
0.0
 11
-1.124998
 21
-5.95
 31
0.0
  0
LINE
  5
704
  8
0
  6
BYBLOCK
 62
     0
 10
-1.185
 20
-5.76
 30
0.0
 11
-1.070002
 21
-5.76
 31
0.0
  0
LINE
  5
705
  8
0
  6
BYBLOCK
 62
     0
 10
-1.185
 20
-5.95
 30
0.0
 11
-0.970002
 21
-5.95
 31
0.0
  0
CIRCLE
  5
706
  8
0
  6
BYBLOCK
 62
     0
 10
-2.17
 20
-5.1125
 30
0.0
 40
0.1975
  0
CIRCLE
  5
707
  8
0
  6
BYBLOCK
 62
     0
 10
-8.361924
 20
-3.603202
 30
0.0
 40
0.139997
  0
CIRCLE
  5
708
  8
0
  6
BYBLOCK
 62
     0
 10
-8.361924
 20
-3.954958
 30
0.0
 40
0.139997
  0
LINE
  5
709
  8
0
  6
BYBLOCK
 62
     0
 10
-7.655032
 20
-3.31992
 30
0.0
 11
-8.595008
 21
-3.31992
 31
0.0
  0
LINE
  5
70A
  8
0
  6
BYBLOCK
 62
     0
 10
-8.501883
 20
-3.599966
 30
0.0
 11
-8.595008
 21
-3.599966
 31
0.0
  0
CIRCLE
  5
70B
  8
0
  6
BYBLOCK
 62
     0
 10
-7.888116
 20
-3.603202
 30
0.0
 40
0.139997
  0
CIRCLE
  5
70C
  8
0
  6
BYBLOCK
 62
     0
 10
-7.888116
 20
-3.954958
 30
0.0
 40
0.139997
  0
LINE
  5
70D
  8
0
  6
BYBLOCK
 62
     0
 10
-7.655032
 20
-3.599966
 30
0.0
 11
-7.748157
 21
-3.599966
 31
0.0
  0
LINE
  5
70E
  8
0
  6
BYBLOCK
 62
     0
 10
-8.028075
 20
-3.599966
 30
0.0
 11
-8.221965
 21
-3.599966
 31
0.0
  0
LINE
  5
71F
  8
0
 10
-10.2
 20
5.1125
 30
0.0
 11
-10.02
 21
5.1125
 31
0.0
  0
LINE
  5
720
  8
0
 10
-10.11
 20
5.0225
 30
0.0
 11
-10.11
 21
5.2025
 31
0.0
  0
LINE
  5
721
  8
0
 10
-6.23
 20
5.1125
 30
0.0
 11
-6.05
 21
5.1125
 31
0.0
  0
LINE
  5
722
  8
0
 10
-6.14
 20
5.0225
 30
0.0
 11
-6.14
 21
5.2025
 31
0.0
  0
LINE
  5
723
  8
0
 10
-2.26
 20
5.1125
 30
0.0
 11
-2.08
 21
5.1125
 31
0.0
  0
LINE
  5
724
  8
0
 10
-2.17
 20
5.0225
 30
0.0
 11
-2.17
 21
5.2025
 31
0.0
  0
LINE
  5
725
  8
0
 10
-2.26
 20
-5.1125
 30
0.0
 11
-2.08
 21
-5.1125
 31
0.0
  0
LINE
  5
726
  8
0
 10
-2.17
 20
-5.2025
 30
0.0
 11
-2.17
 21
-5.0225
 31
0.0
  0
LINE
  5
727
  8
0
 10
-6.23
 20
-5.1125
 30
0.0
 11
-6.05
 21
-5.1125
 31
0.0
  0
LINE
  5
728
  8
0
 10
-6.14
 20
-5.2025
 30
0.0
 11
-6.14
 21
-5.0225
 31
0.0
  0
LINE
  5
729
  8
0
 10
-10.2
 20
-5.1125
 30
0.0
 11
-10.02
 21
-5.1125
 31
0.0
  0
LINE
  5
72A
  8
0
 10
-10.11
 20
-5.2025
 30
0.0
 11
-10.11
 21
-5.0225
 31
0.0
  0
LINE
  5
72B
  8
0
 10
2.08
 20
5.1125
 30
0.0
 11
2.26
 21
5.1125
 31
0.0
  0
LINE
  5
72C
  8
0
 10
2.17
 20
5.0225
 30
0.0
 11
2.17
 21
5.2025
 31
0.0
  0
LINE
  5
72D
  8
0
 10
6.05
 20
5.1125
 30
0.0
 11
6.23
 21
5.1125
 31
0.0
  0
LINE
  5
72E
  8
0
 10
6.14
 20
5.0225
 30
0.0
 11
6.14
 21
5.2025
 31
0.0
  0
LINE
  5
72F
  8
0
 10
10.02
 20
5.1125
 30
0.0
 11
10.2
 21
5.1125
 31
0.0
  0
LINE
  5
730
  8
0
 10
10.11
 20
5.0225
 30
0.0
 11
10.11
 21
5.2025
 31
0.0
  0
LINE
  5
731
  8
0
 10
10.02
 20
-5.1125
 30
0.0
 11
10.2
 21
-5.1125
 31
0.0
  0
LINE
  5
732
  8
0
 10
10.11
 20
-5.2025
 30
0.0
 11
10.11
 21
-5.0225
 31
0.0
  0
LINE
  5
733
  8
0
 10
6.05
 20
-5.1125
 30
0.0
 11
6.23
 21
-5.1125
 31
0.0
  0
LINE
  5
734
  8
0
 10
6.14
 20
-5.2025
 30
0.0
 11
6.14
 21
-5.0225
 31
0.0
  0
LINE
  5
735
  8
0
 10
2.08
 20
-5.1125
 30
0.0
 11
2.26
 21
-5.1125
 31
0.0
  0
LINE
  5
736
  8
0
 10
2.17
 20
-5.2025
 30
0.0
 11
2.17
 21
-5.0225
 31
0.0
  0
LINE
  5
737
  8
0
 10
-10.2
 20
6.365
 30
0.0
 11
-10.02
 21
6.365
 31
0.0
  0
LINE
  5
738
  8
0
 10
-10.11
 20
6.275
 30
0.0
 11
-10.11
 21
6.455
 31
0.0
  0
LINE
  5
739
  8
0
 10
-6.23
 20
6.365
 30
0.0
 11
-6.05
 21
6.365
 31
0.0
  0
LINE
  5
73A
  8
0
 10
-6.14
 20
6.275
 30
0.0
 11
-6.14
 21
6.455
 31
0.0
  0
LINE
  5
73B
  8
0
 10
-2.26
 20
6.365
 30
0.0
 11
-2.08
 21
6.365
 31
0.0
  0
LINE
  5
73C
  8
0
 10
-2.17
 20
6.275
 30
0.0
 11
-2.17
 21
6.455
 31
0.0
  0
LINE
  5
73D
  8
0
 10
2.08
 20
6.365
 30
0.0
 11
2.26
 21
6.365
 31
0.0
  0
LINE
  5
73E
  8
0
 10
2.17
 20
6.275
 30
0.0
 11
2.17
 21
6.455
 31
0.0
  0
LINE
  5
73F
  8
0
 10
6.05
 20
6.365
 30
0.0
 11
6.23
 21
6.365
 31
0.0
  0
LINE
  5
740
  8
0
 10
6.14
 20
6.275
 30
0.0
 11
6.14
 21
6.455
 31
0.0
  0
LINE
  5
741
  8
0
 10
10.02
 20
6.365
 30
0.0
 11
10.2
 21
6.365
 31
0.0
  0
LINE
  5
742
  8
0
 10
10.11
 20
6.275
 30
0.0
 11
10.11
 21
6.455
 31
0.0
  0
LINE
  5
743
  8
0
 10
-10.2
 20
-6.365
 30
0.0
 11
-10.02
 21
-6.365
 31
0.0
  0
LINE
  5
744
  8
0
 10
-10.11
 20
-6.455
 30
0.0
 11
-10.11
 21
-6.275
 31
0.0
  0
LINE
  5
745
  8
0
 10
-6.23
 20
-6.365
 30
0.0
 11
-6.05
 21
-6.365
 31
0.0
  0
LINE
  5
746
  8
0
 10
-6.14
 20
-6.455
 30
0.0
 11
-6.14
 21
-6.275
 31
0.0
  0
LINE
  5
747
  8
0
 10
-2.26
 20
-6.365
 30
0.0
 11
-2.08
 21
-6.365
 31
0.0
  0
LINE
  5
748
  8
0
 10
-2.17
 20
-6.455
 30
0.0
 11
-2.17
 21
-6.275
 31
0.0
  0
LINE
  5
749
  8
0
 10
2.08
 20
-6.365
 30
0.0
 11
2.26
 21
-6.365
 31
0.0
  0
LINE
  5
74A
  8
0
 10
2.17
 20
-6.455
 30
0.0
 11
2.17
 21
-6.275
 31
0.0
  0
LINE
  5
74B
  8
0
 10
6.05
 20
-6.365
 30
0.0
 11
6.23
 21
-6.365
 31
0.0
  0
LINE
  5
74C
  8
0
 10
6.14
 20
-6.455
 30
0.0
 11
6.14
 21
-6.275
 31
0.0
  0
LINE
  5
74D
  8
0
 10
10.02
 20
-6.365
 30
0.0
 11
10.2
 21
-6.365
 31
0.0
  0
LINE
  5
74E
  8
0
 10
10.11
 20
-6.455
 30
0.0
 11
10.11
 21
-6.275
 31
0.0
  0
INSERT
  5
7BD
  8
0
  2
NEWSIDECA5-860
 10
10.11
 20
6.365
 30
0.0
  0
ENDSEC
  0
EOF
