  0
SECTION
  2
HEADER
  9
$ACADVER
  1
AC1009
  9
$INSBASE
 10
0.0
 20
0.0
 30
0.0
  9
$EXTMIN
 10
-0.195697
 20
-2.422124
 30
0.0
  9
$EXTMAX
 10
0.710541
 20
2.421395
 30
0.0
  9
$LIMMIN
 10
0.0
 20
0.0
  9
$LIMMAX
 10
12.0
 20
9.0
  9
$ORTHOMODE
 70
     1
  9
$REGENMODE
 70
     1
  9
$FILLMODE
 70
     1
  9
$QTEXTMODE
 70
     0
  9
$MIRRTEXT
 70
     1
  9
$DRAGMODE
 70
     2
  9
$LTSCALE
 40
10.0
  9
$OSMODE
 70
     0
  9
$ATTMODE
 70
     1
  9
$TEXTSIZE
 40
0.125
  9
$TRACEWID
 40
0.05
  9
$TEXTSTYLE
  7
STANDARD
  9
$CLAYER
  8
0
  9
$CELTYPE
  6
MITTE
  9
$CECOLOR
 62
   256
  9
$DIMSCALE
 40
1.0
  9
$DIMASZ
 40
0.125
  9
$DIMEXO
 40
0.0625
  9
$DIMDLI
 40
0.25
  9
$DIMRND
 40
0.0
  9
$DIMDLE
 40
0.0
  9
$DIMEXE
 40
0.125
  9
$DIMTP
 40
0.005
  9
$DIMTM
 40
-0.005
  9
$DIMTXT
 40
3.0
  9
$DIMCEN
 40
0.09
  9
$DIMTSZ
 40
0.0
  9
$DIMTOL
 70
     0
  9
$DIMLIM
 70
     0
  9
$DIMTIH
 70
     1
  9
$DIMTOH
 70
     1
  9
$DIMSE1
 70
     0
  9
$DIMSE2
 70
     0
  9
$DIMTAD
 70
     0
  9
$DIMZIN
 70
     0
  9
$DIMBLK
  1

  9
$DIMASO
 70
     1
  9
$DIMSHO
 70
     1
  9
$DIMPOST
  1

  9
$DIMAPOST
  1

  9
$DIMALT
 70
     0
  9
$DIMALTD
 70
     0
  9
$DIMALTF
 40
25.4
  9
$DIMLFAC
 40
1.0
  9
$DIMTOFL
 70
     1
  9
$DIMTVP
 40
0.0
  9
$DIMTIX
 70
     0
  9
$DIMSOXD
 70
     0
  9
$DIMSAH
 70
     0
  9
$DIMBLK1
  1

  9
$DIMBLK2
  1

  9
$DIMSTYLE
  2
STANDARD
  9
$DIMCLRD
 70
     0
  9
$DIMCLRE
 70
     0
  9
$DIMCLRT
 70
     0
  9
$DIMTFAC
 40
1.0
  9
$DIMGAP
 40
0.0625
  9
$LUNITS
 70
     2
  9
$LUPREC
 70
     3
  9
$SKETCHINC
 40
0.1
  9
$FILLETRAD
 40
10.0
  9
$AUNITS
 70
     0
  9
$AUPREC
 70
     1
  9
$MENU
  1
acad
  9
$ELEVATION
 40
0.0
  9
$PELEVATION
 40
0.0
  9
$THICKNESS
 40
0.0
  9
$LIMCHECK
 70
     0
  9
$BLIPMODE
 70
     1
  9
$CHAMFERA
 40
10.0
  9
$CHAMFERB
 40
10.0
  9
$SKPOLY
 70
     0
  9
$TDCREATE
 40
2450477.600014
  9
$TDUPDATE
 40
2451162.664867
  9
$TDINDWG
 40
0.000402
  9
$TDUSRTIMER
 40
0.000402
  9
$USRTIMER
 70
     1
  9
$ANGBASE
 50
0.0
  9
$ANGDIR
 70
     0
  9
$PDMODE
 70
     2
  9
$PDSIZE
 40
-0.01
  9
$PLINEWID
 40
0.0
  9
$COORDS
 70
     1
  9
$SPLFRAME
 70
     0
  9
$SPLINETYPE
 70
     6
  9
$SPLINESEGS
 70
     8
  9
$ATTDIA
 70
     0
  9
$ATTREQ
 70
     1
  9
$HANDLING
 70
     1
  9
$HANDSEED
  5
67
  9
$SURFTAB1
 70
     6
  9
$SURFTAB2
 70
     6
  9
$SURFTYPE
 70
     6
  9
$SURFU
 70
     6
  9
$SURFV
 70
     6
  9
$UCSNAME
  2

  9
$UCSORG
 10
0.0
 20
0.0
 30
0.0
  9
$UCSXDIR
 10
1.0
 20
0.0
 30
0.0
  9
$UCSYDIR
 10
0.0
 20
1.0
 30
0.0
  9
$PUCSNAME
  2

  9
$PUCSORG
 10
0.0
 20
0.0
 30
0.0
  9
$PUCSXDIR
 10
1.0
 20
0.0
 30
0.0
  9
$PUCSYDIR
 10
0.0
 20
1.0
 30
0.0
  9
$USERI1
 70
     0
  9
$USERI2
 70
     0
  9
$USERI3
 70
     0
  9
$USERI4
 70
     0
  9
$USERI5
 70
     0
  9
$USERR1
 40
0.0
  9
$USERR2
 40
0.0
  9
$USERR3
 40
0.0
  9
$USERR4
 40
0.0
  9
$USERR5
 40
0.0
  9
$WORLDVIEW
 70
     1
  9
$SHADEDGE
 70
     3
  9
$SHADEDIF
 70
    70
  9
$TILEMODE
 70
     1
  9
$MAXACTVP
 70
    16
  9
$PLIMCHECK
 70
     0
  9
$PEXTMIN
 10
1.000000E+020
 20
1.000000E+020
 30
1.000000E+020
  9
$PEXTMAX
 10
-1.000000E+020
 20
-1.000000E+020
 30
-1.000000E+020
  9
$PLIMMIN
 10
0.0
 20
0.0
  9
$PLIMMAX
 10
12.0
 20
9.0
  9
$UNITMODE
 70
     0
  9
$VISRETAIN
 70
     0
  9
$PLINEGEN
 70
     0
  9
$PSLTSCALE
 70
     1
  0
ENDSEC
  0
SECTION
  2
TABLES
  0
TABLE
  2
VPORT
 70
     2
  0
VPORT
  2
*ACTIVE
 70
     0
 10
0.0
 20
0.0
 11
1.0
 21
1.0
 12
0.257422
 22
-0.000364
 13
0.0
 23
0.0
 14
1.0
 24
1.0
 15
0.0
 25
0.0
 16
0.0
 26
0.0
 36
1.0
 17
0.0
 27
0.0
 37
0.0
 40
5.150466
 41
1.603066
 42
50.0
 43
0.0
 44
0.0
 50
0.0
 51
0.0
 71
     0
 72
   100
 73
     1
 74
     1
 75
     1
 76
     0
 77
     0
 78
     0
  0
ENDTAB
  0
TABLE
  2
LTYPE
 70
     2
  0
LTYPE
  2
CONTINUOUS
 70
     0
  3
Durchgezogene Linie
 72
    65
 73
     0
 40
0.0
  0
LTYPE
  2
MITTE
 70
     0
  3
____ _ ____ _ ____ _ ____ _ ____ _ ____ _ ____ 
 72
    65
 73
     4
 40
2.0
 49
1.25
 49
-0.25
 49
0.25
 49
-0.25
  0
ENDTAB
  0
TABLE
  2
LAYER
 70
     1
  0
LAYER
  2
0
 70
     0
 62
     7
  6
CONTINUOUS
  0
ENDTAB
  0
TABLE
  2
STYLE
 70
     1
  0
STYLE
  2
STANDARD
 70
     0
 40
0.0
 41
1.0
 50
0.0
 71
     0
 42
0.2
  3
txt
  4

  0
ENDTAB
  0
TABLE
  2
VIEW
 70
     0
  0
ENDTAB
  0
TABLE
  2
UCS
 70
     0
  0
ENDTAB
  0
TABLE
  2
APPID
 70
     1
  0
APPID
  2
ACAD
 70
     0
  0
ENDTAB
  0
TABLE
  2
DIMSTYLE
 70
     1
  0
DIMSTYLE
  2
STANDARD
 70
     0
  3

  4

  5

  6

  7

 40
1.0
 41
0.18
 42
0.0625
 43
0.38
 44
0.18
 45
0.0
 46
0.0
 47
0.0
 48
0.0
140
0.18
141
0.09
142
0.0
143
25.4
144
1.0
145
0.0
146
1.0
147
0.09
 71
     0
 72
     0
 73
     1
 74
     1
 75
     0
 76
     0
 77
     0
 78
     0
170
     0
171
     2
172
     0
173
     0
174
     0
175
     0
176
     0
177
     0
178
     0
  0
ENDTAB
  0
ENDSEC
  0
SECTION
  2
BLOCKS
  0
BLOCK
  8
0
  2
$MODEL_SPACE
 70
     0
 10
0.0
 20
0.0
 30
0.0
  3
$MODEL_SPACE
  1

  0
ENDBLK
  5
21
  8
0
  0
BLOCK
 67
     1
  8
0
  2
$PAPER_SPACE
 70
     0
 10
0.0
 20
0.0
 30
0.0
  3
$PAPER_SPACE
  1

  0
ENDBLK
  5
1F
 67
     1
  8
0
  0
ENDSEC
  0
SECTION
  2
ENTITIES
  0
LINE
  5
24
  8
0
  6
MITTE
 10
-0.195297
 20
0.0
 30
0.0
 11
0.710213
 21
0.0
 31
0.0
  0
LINE
  5
25
  8
0
  6
CONTINUOUS
 10
0.0
 20
-2.421255
 30
0.0
 11
0.527558
 21
-2.421255
 31
0.0
  0
LINE
  5
26
  8
0
  6
CONTINUOUS
 10
0.0
 20
-1.964563
 30
0.0
 11
0.527558
 21
-1.964563
 31
0.0
  0
LINE
  5
27
  8
0
  6
CONTINUOUS
 10
0.0
 20
2.421255
 30
0.0
 11
0.527558
 21
2.421255
 31
0.0
  0
LINE
  5
28
  8
0
  6
CONTINUOUS
 10
0.0
 20
1.964563
 30
0.0
 11
0.527558
 21
1.964563
 31
0.0
  0
CIRCLE
  5
29
  8
0
  6
CONTINUOUS
 10
0.263779
 20
-2.094484
 30
0.0
 40
0.129921
  0
CIRCLE
  5
2A
  8
0
  6
CONTINUOUS
 10
0.263779
 20
-1.641729
 30
0.0
 40
0.129921
  0
CIRCLE
  5
2B
  8
0
  6
CONTINUOUS
 10
0.263779
 20
2.094484
 30
0.0
 40
0.129921
  0
CIRCLE
  5
2C
  8
0
  6
CONTINUOUS
 10
0.263779
 20
1.641729
 30
0.0
 40
0.129921
  0
LINE
  5
2D
  8
0
  6
CONTINUOUS
 10
0.380761
 20
-2.045128
 30
0.0
 11
0.285291
 21
-2.100248
 31
0.0
  0
LINE
  5
2E
  8
0
  6
CONTINUOUS
 10
0.380761
 20
2.04513
 30
0.0
 11
0.285291
 21
2.100248
 31
0.0
  0
LINE
  5
2F
  8
0
  6
CONTINUOUS
 10
0.0
 20
-2.421255
 30
0.0
 11
0.0
 21
2.421255
 31
0.0
  0
LINE
  5
30
  8
0
  6
CONTINUOUS
 10
0.242267
 20
-2.08872
 30
0.0
 11
0.146797
 21
-2.14384
 31
0.0
  0
LINE
  5
31
  8
0
  6
CONTINUOUS
 10
0.258015
 20
-2.115996
 30
0.0
 11
0.162545
 21
-2.171116
 31
0.0
  0
LINE
  5
32
  8
0
  6
CONTINUOUS
 10
0.242267
 20
-2.08872
 30
0.0
 11
0.210771
 21
-2.034167
 31
0.0
  0
LINE
  5
33
  8
0
  6
CONTINUOUS
 10
0.269543
 20
-2.072972
 30
0.0
 11
0.238048
 21
-2.018419
 31
0.0
  0
LINE
  5
34
  8
0
  6
CONTINUOUS
 10
0.203462
 20
-2.147492
 30
0.0
 11
0.187714
 21
-2.120216
 31
0.0
  0
LINE
  5
35
  8
0
  6
CONTINUOUS
 10
0.210771
 20
-2.034167
 30
0.0
 11
0.238048
 21
-2.018419
 31
0.0
  0
LINE
  5
36
  8
0
  6
CONTINUOUS
 10
0.365014
 20
-2.017852
 30
0.0
 11
0.269543
 21
-2.072972
 31
0.0
  0
LINE
  5
37
  8
0
  6
CONTINUOUS
 10
0.285291
 20
-2.100248
 30
0.0
 11
0.316788
 21
-2.154801
 31
0.0
  0
LINE
  5
38
  8
0
  6
CONTINUOUS
 10
0.289511
 20
-2.170549
 30
0.0
 11
0.316788
 21
-2.154801
 31
0.0
  0
LINE
  5
39
  8
0
  6
CONTINUOUS
 10
0.258015
 20
-2.115996
 30
0.0
 11
0.289511
 21
-2.170549
 31
0.0
  0
LINE
  5
3A
  8
0
  6
CONTINUOUS
 10
0.339844
 20
-2.068752
 30
0.0
 11
0.324096
 21
-2.041476
 31
0.0
  0
LINE
  5
3B
  8
0
  6
CONTINUOUS
 10
0.261838
 20
-1.619543
 30
0.0
 11
0.213583
 21
-1.579052
 31
0.0
  0
LINE
  5
3C
  8
0
  6
CONTINUOUS
 10
0.26572
 20
-1.663915
 30
0.0
 11
0.194859
 21
-1.748364
 31
0.0
  0
LINE
  5
3D
  8
0
  6
CONTINUOUS
 10
0.241593
 20
-1.64367
 30
0.0
 11
0.170732
 21
-1.728119
 31
0.0
  0
LINE
  5
3E
  8
0
  6
CONTINUOUS
 10
0.241593
 20
-1.64367
 30
0.0
 11
0.193338
 21
-1.60318
 31
0.0
  0
LINE
  5
3F
  8
0
  6
CONTINUOUS
 10
0.193338
 20
-1.60318
 30
0.0
 11
0.213583
 21
-1.579052
 31
0.0
  0
LINE
  5
40
  8
0
  6
CONTINUOUS
 10
0.22523
 20
-1.71217
 30
0.0
 11
0.201103
 21
-1.691925
 31
0.0
  0
LINE
  5
41
  8
0
  6
CONTINUOUS
 10
0.356826
 20
-1.555339
 30
0.0
 11
0.285966
 21
-1.639788
 31
0.0
  0
LINE
  5
42
  8
0
  6
CONTINUOUS
 10
0.285966
 20
-1.639788
 30
0.0
 11
0.33422
 21
-1.680278
 31
0.0
  0
LINE
  5
43
  8
0
  6
CONTINUOUS
 10
0.332699
 20
-1.535094
 30
0.0
 11
0.261838
 21
-1.619543
 31
0.0
  0
LINE
  5
44
  8
0
  6
CONTINUOUS
 10
0.26572
 20
-1.663915
 30
0.0
 11
0.313975
 21
-1.704406
 31
0.0
  0
LINE
  5
45
  8
0
  6
CONTINUOUS
 10
0.326456
 20
-1.591533
 30
0.0
 11
0.302329
 21
-1.571288
 31
0.0
  0
LINE
  5
46
  8
0
  6
CONTINUOUS
 10
0.313975
 20
-1.704406
 30
0.0
 11
0.33422
 21
-1.680278
 31
0.0
  0
LINE
  5
47
  8
0
  6
CONTINUOUS
 10
0.242267
 20
2.08872
 30
0.0
 11
0.210771
 21
2.034165
 31
0.0
  0
LINE
  5
48
  8
0
  6
CONTINUOUS
 10
0.365014
 20
2.01785
 30
0.0
 11
0.269543
 21
2.072972
 31
0.0
  0
LINE
  5
49
  8
0
  6
CONTINUOUS
 10
0.269543
 20
2.072972
 30
0.0
 11
0.238048
 21
2.018417
 31
0.0
  0
LINE
  5
4A
  8
0
  6
CONTINUOUS
 10
0.261838
 20
1.619544
 30
0.0
 11
0.213583
 21
1.579052
 31
0.0
  0
LINE
  5
4B
  8
0
  6
CONTINUOUS
 10
0.26572
 20
1.663914
 30
0.0
 11
0.194859
 21
1.748363
 31
0.0
  0
LINE
  5
4C
  8
0
  6
CONTINUOUS
 10
0.241593
 20
1.64367
 30
0.0
 11
0.193338
 21
1.603178
 31
0.0
  0
LINE
  5
4D
  8
0
  6
CONTINUOUS
 10
0.241593
 20
1.64367
 30
0.0
 11
0.170732
 21
1.728119
 31
0.0
  0
LINE
  5
4E
  8
0
  6
CONTINUOUS
 10
0.193338
 20
1.603178
 30
0.0
 11
0.213583
 21
1.579052
 31
0.0
  0
LINE
  5
4F
  8
0
  6
CONTINUOUS
 10
0.22523
 20
1.71217
 30
0.0
 11
0.201103
 21
1.691926
 31
0.0
  0
LINE
  5
50
  8
0
  6
CONTINUOUS
 10
0.210771
 20
2.034165
 30
0.0
 11
0.238048
 21
2.018417
 31
0.0
  0
LINE
  5
51
  8
0
  6
CONTINUOUS
 10
0.356826
 20
1.555339
 30
0.0
 11
0.285966
 21
1.639788
 31
0.0
  0
LINE
  5
52
  8
0
  6
CONTINUOUS
 10
0.332699
 20
1.535095
 30
0.0
 11
0.261838
 21
1.619544
 31
0.0
  0
LINE
  5
53
  8
0
  6
CONTINUOUS
 10
0.285966
 20
1.639788
 30
0.0
 11
0.33422
 21
1.68028
 31
0.0
  0
LINE
  5
54
  8
0
  6
CONTINUOUS
 10
0.26572
 20
1.663914
 30
0.0
 11
0.313975
 21
1.704406
 31
0.0
  0
LINE
  5
55
  8
0
  6
CONTINUOUS
 10
0.326456
 20
1.591532
 30
0.0
 11
0.302329
 21
1.571288
 31
0.0
  0
LINE
  5
56
  8
0
  6
CONTINUOUS
 10
0.313975
 20
1.704406
 30
0.0
 11
0.33422
 21
1.68028
 31
0.0
  0
LINE
  5
57
  8
0
  6
CONTINUOUS
 10
0.242267
 20
2.08872
 30
0.0
 11
0.146797
 21
2.143838
 31
0.0
  0
LINE
  5
58
  8
0
  6
CONTINUOUS
 10
0.258015
 20
2.115996
 30
0.0
 11
0.162545
 21
2.171114
 31
0.0
  0
LINE
  5
59
  8
0
  6
CONTINUOUS
 10
0.203462
 20
2.147492
 30
0.0
 11
0.187714
 21
2.120216
 31
0.0
  0
LINE
  5
5A
  8
0
  6
CONTINUOUS
 10
0.285291
 20
2.100248
 30
0.0
 11
0.316788
 21
2.154799
 31
0.0
  0
LINE
  5
5B
  8
0
  6
CONTINUOUS
 10
0.289511
 20
2.170547
 30
0.0
 11
0.316788
 21
2.154799
 31
0.0
  0
LINE
  5
5C
  8
0
  6
CONTINUOUS
 10
0.258015
 20
2.115996
 30
0.0
 11
0.289511
 21
2.170547
 31
0.0
  0
LINE
  5
5D
  8
0
  6
CONTINUOUS
 10
0.339844
 20
2.068752
 30
0.0
 11
0.324096
 21
2.041476
 31
0.0
  0
LINE
  5
5E
  8
0
  6
CONTINUOUS
 10
0.527558
 20
-2.421255
 30
0.0
 11
0.527558
 21
2.421255
 31
0.0
  0
ENDSEC
  0
EOF
